Marilyn Manson - Get My Rocks Off Text Guitar Tab

Learn the song with the online tablature player
COOL song... the solo is super good.
Too bad it is a cover... John5 plays the solo very
well...I love him. This song was a bicht tabing but I did it.
Hope you like it.Intro
(Use a littel vibration after hiting the chord)

-4~---
-4~---
-2~---

Main Riff/Verse
(Use some nice wah-wah)
"Some men need some killer weed..."

-2-2--5-2---2-2--5-----0-Chours
"Get my rocks off..."

---9-9-9-7-7-7--
---9-9-9-7-7-7--
---7-7-7-5-5-5--
7/--------------

Post-Chours
"Get my rock off a mounten and..."

-11-11-99-
-11-11-99-
-9--9--77-
-------00-Verse 2  (The funky guitar)

-22-5-2-7b-0-
-22-5-2-7b-0-

Verse 2
Bassynth)

-222225555522222-22222555557777700000-

Verse 2
Guitar)

-2-2--5-2---2-2--5-----0-Chours

---9-9-9-7-7-7--
---9-9-9-7-7-7--
---7-7-7-5-5-5--
7/--------------

Post-Chours

-11-11-99-
-11-11-99-
-9--9--77-

Break
Keyboard?Flute?)
This part sounds like some thiing you hear when your high...

-9~9~^-9~^-10~-11~-11~^-

Solo/Verse 3
(Good solo and it is not that hard. Ending I'm not 100% sure of)

---------------------------12-14^^^-----12--14^-14p12h14p12-------14-
-7~-7p5-5b/12--12-14-------------------------------------------------

-----------------------------------------14------15-14-12~-
-14~-12h14p12-------14~--14p12-14-14-14--------------------

Verse 3
Bassynth)

-222225555522222-22222555557777700000-

Verse 3
Guitar)

-2-2--5-2---2-2--5-----0-Chours

---9-9-9-7-7-7--
---9-9-9-7-7-7--
---7-7-7-5-5-5--
7/--------------

Post-Chours

-11-11-99-
-11-11-99-
-9--9--77-

Outro
Keyboard)

-10/--

Outro
Guitar)
(You hear this part when I starts to fade away)

Song: Get My Rocks Off
Artist: Marilyn Manson
Written by: Dr Hook  (Solo by John5)
Lyrics by: Dr Hook

Standard Tunning
Legend:

h = hammer-on
p = pull-of
b = bend
r = realse
/ = slide down
\ = slide upp
~ = vibration
T = taping
. = palm muted
()= ghost note
<>= harmoni
x = mute with your left hand
* = tremelo picking

Solo

|-------------------------------------------------------------------------------|
|-------------------------------------------------------------------------------|
|----------------------------12-14b15rp12----12--14b15r-14p12h14p12-----------/9|
|----------------------12-14--------------14-----------------------14p12--------|
|7~-5-5b7r--/12--12-14--------------------------------------------------14p12---|
|-------------------------------------------------------------------------------|