Marilyn Manson - Learning To Swim Text Guitar Tab

Learn the song with the online tablature player
          This one of the best Manson song ever!!!!!
          Only "Man that you fear" and "Coma white" beats this one!!!!
          I think this is correct. and the intro I'm 100% on!
          and don't try to copy this song! I know i was the first one to tab it!
          This song has ALOT of littel solos, I will trie to tab them all...

Intro
This intro rocks!)

          -2-----------2-------------2-----------2-------------
          -2-----------3---------3---2-----------3-/5-3-2-2-2--
          -3-----------2---2---2---2-3-----------2------------3
          -4-----------0-0---0-------4-----------0-------------
          -4---4---4-4---------------4---4---4-4---------------
          -2-2---2-------------------2-2---2-------------------

          -2-3-3-5-3-2-2---2-3-3-5-3-2~

          -------7-5-5
          -9-7-7------

Verse
This part was where hard to hear)
          Palm muted
You can hear it in the begning of the verse)

          ----11-11-12----
          -9~----------9\-

Solo 2
just play this note realy fast and use alot of vibrations)

Solo 3
This the big one, you can do it, it is easy)

          -----------12-15~-17-17p14p12h17p14p12h17p14p12-
          -9-12~-9-7--------------------------------------

          -17-14-12-14-12--12

          Now you are wondering were the rest of this fucking solo is...
          Well, I can hear what the F*ck Daisy is playing?
          Do it your self!
          I have done the hardest parts the rest is of the solo
          Daisy is just holding a coupel of notes...

Solo 4
This while the intro riff is playing again)
          First they play the old solo part...

          -/5-3-2-2-2---2-3-3-5-3-2-2~

          Then a new solo bit...

          ---2~------------2~--------------------
          -2---2-2-3-5-3-2---2-2-3-5-3-2---------
          -------------------------------4~-2~-4~

          Play the last tones over again...

          9 June 2001 15.37