Marilyn Manson - Little Horn Live Text Guitar Tab

Learn the song with the online tablature player
NOTE: This song is tuned to Drop D (D A D G B E)

Intro/Verse/Fill 1
D|-3-0-0-3-0-0-3-0-0-3-0-0-3-0-5--
A|-3-0-0-3-0-0-3-0-0-3-0-0-3-0-5--
D|-3-0-0-3-0-0-3-0-0-3-0-0-3-0-5--

Intro/Verse/Fill 1 (cont.)
D|-3-0-0-3-0-0-3-0-0-3-0-0-6-5-3-|
A|-3-0-0-3-0-0-3-0-0-3-0-0-6-5-3-|
D|-3-0-0-3-0-0-3-0-0-3-0-0-6-5-3-|

Pre-Chorus
D|-6-6-6-6-6-6-6-6-6-6-6-6-5-3-0-|
A|-6-6-6-6-6-6-6-6-6-6-6-6-5-3-0-|
D|-6-6-6-6-6-6-6-6-6-6-6-6-5-3-0-|
  PM----------------------|

Chorus
“World spreads it’s legs
.”)
D|-0----6-3---5--5\--3-0-0-3-0-0-3-0-0-3-0-0-3-0-0-3-0-5-|
A|-0----6-3---5--5\--3-0-0-3-0-0-3-0-0-3-0-0-3-0-0-3-0-5-|
D|-0----6-3---5--5\--3-0-0-3-0-0-3-0-0-3-0-0-3-0-0-3-0-5-|
                       Pm-|  pm-|  pm-|  pm-|  pm-|  pm

Post-Chorus
E|-0--------------------------|
B|-0--------------------------|
G|-0--------------------------|
D|----------------------1-----|
A|----------------------1-----|
D|----------------------1-----|

Interlude
G|-------------------5/7-7-------|-%-|-%-|-%-|---------|
D|-6-6-6-5-5-5-3-3-3-5/7-7-0-0-0-|-%-|-%-|-%-|-0-------|
A|-6-6-6-5-5-5-3-3-3-3/5-5-0-0-0-|-%-|-%-|-%-|-0-------|
D|-6-6-6-5-5-5-3-3-3-------0-0-0-|-%-|-%-|-%-|-0-------|
  PM----------------|      PM---|

Bridge
“Everyone will suffer now….”)
D|-3-0-0-3-0-0-3-0-0-3-0-0-3-0-5--
A|-3-0-0-3-0-0-3-0-0-3-0-0-3-0-5--
D|-3-0-0-3-0-0-3-0-0-3-0-0-3-0-5--

Bridge
cont.)
D|-3-0-0-3-0-0-3-0-0-3-0-0-6-5-3-|
A|-3-0-0-3-0-0-3-0-0-3-0-0-6-5-3-|
D|-3-0-0-3-0-0-3-0-0-3-0-0-6-5-3-|

Bridge
cont.)
D|-3-0-0-3-0-0-3-0-0-3-0-0-3-0-5--
A|-3-0-0-3-0-0-3-0-0-3-0-0-3-0-5--
D|-3-0-0-3-0-0-3-0-0-3-0-0-3-0-5--

Bridge
cont.)
D|-0--------------|
A|-0--------------|
D|-0--------------|

End
E|-0---------------------------|
B|-0---------------------------|
G|-0---------------------------|
D|----------------------1------|
A|----------------------1------|
D|----------------------1---0--|

Song Structure: -
Argh!!!!!!
Intro

Verse
“There’s an apple….”)

Pre-Chorus
“Little horn is born….”)
Chorus
Post-Chorus

Verse
“Dead will dance……..”)

Pre-Chorus
“Save yourself from…….”)
Chorus
Interlude
Bridge
Chorus
End