Marilyn Manson - Nightmare Before Christmas Text Guitar Tab

Learn song with the online tabulature player
I said I was gonna do it and so.. here you go. 
Nightmare Before Christmas
Great for the kids.. have fun playin.


|-------------------------|
|-0-2-3-5-7-7--6-6--5-5---|
|----------7----6----5----|
|-------------------------|
|-------------------------|
|-------------------------|

|------------7-5-5-5------|
|-0-2-3-5-7-7---7-7-------|
|----------7--------------|
|-------------------------|
|-------------------------|
|-------------------------|