Marilyn Manson - Null Text Guitar Tab

Learn song with the online tabulature player
--------------------------\-------------------------------/---------------------
                           \ NULL  - Marilyn Manson      /
----------------------------\---------------------------/------------------------
Tabbed by: Xoorath
Email: 244pheonix@gmail.com

Tuning: standard

e|-0--0------777767--7777898----------|
B|-0--0-----------------------1-22-2--|
G|-0--0-------------------------------|
D|-0--0-------------------------------|
A|-0--0-------------------------------|
E|-0--0-------------------------------|