Marilyn Manson - Pistol Whipped Text Guitar Tab

Learn the song with the online tablature player
( ) - soft touch in the note
+   - harmonic (regular, not pinch)
pm  - palm mute
x   - dead note
\   - slide down
/   - slide up
h   - hammer on

 pm                    pm
E----------------------------\-/|
B----------------------------\-/|
G----------------------------\-/|
D----------------------------\-/|
A----------------------------\-/|
D-6-6--6-6-6---4-4-4--6-6^---\-/|

You have to slide your whole hand on all strings to make the sound of it.

Keep repeating this, untill the chorus:

E-----------------------------|
B-----------------------------|
G-----------------------------|
D-9-9-9-9-9-9-9--7-7-7-7-7-7-6|
A-9-9-9-9-9-9-9--7-7-7-7-7-7-6|
D-9-9-9-9-9-9-9--7-7-7-7-7-7-6|

E-x-x-x-x-x-x-x--x-x-x-x-x-x-x|
B-x-x-x-x-x-x-x--x-x-x-x-x-x-x|
G-x-x-x-x-x-x-x--x-x-x-x-x-x-x|
D-x-x-x-x-x-x-x--x-x-x-x-x-x-x|
A-x-x-x-x-x-x-x--x-x-x-x-x-x-x|
D-x-x-x-x-x-x-x--x-x-x-x-x-x-x|

Then come back to the power chords. Keep in mind that the mute strings
are in the same rythm, with alternate strumming, not up-down-up-down,
of course. You just have to make it work for you, in the way you like to strum it.
You're free on that.
In the second time, instead of palm muting, get your pick to rape your strings a
little bit (you'll get
the noise if you're listening to the
song as you learn it). Just jam the pick there, and then:

E----------------------------------|
B----------------------------------|
G----------------------------------|
D-6-6-6-6-6-6-6-6-6-6-4-4-4-4-4----|
A-6-6-6-6-6-6-6-6-6-6-4-4-4-4-4----|
D-6-6-6-6-6-6-6-6-6-6-4-4-4-4-4----|

Instead of playing it that way, you can use wah wah or a crunchy pedal
to do that weird sound, and then all you have to do is play each
note one time, and then keeps bending it (so it make that up and down noise).

Back to the main riff:
 pm                      pm
E----------------------------\-/|
B----------------------------\-/|
G----------------------------\-/|
D----------------------------\-/|
A----------------------------\-/|
D-6-6--6-6-6---4-4-4--6-6^---\-/|

Then there's the same mute strings of the chorus before it now, playing at the same time:

E-x-x-x-x-x-x-x--x-x-x-x-x-x-x|
B-x-x-x-x-x-x-x--x-x-x-x-x-x-x|
G-x-x-x-x-x-x-x--x-x-x-x-x-x-x|
D-x-x-x-x-x-x-x--x-x-x-x-x-x-x|
A-x-x-x-x-x-x-x--x-x-x-x-x-x-x|
D-x-x-x-x-x-x-x--x-x-x-x-x-x-x|

Repeat the main riff untill the chorus again:

E-----------------------------|
B-----------------------------|
G-----------------------------|
D-9-9-9-9-9-9-9--7-7-7-7-7-7-6|
A-9-9-9-9-9-9-9--7-7-7-7-7-7-6|
D-9-9-9-9-9-9-9--7-7-7-7-7-7-6|

E-x-x-x-x-x-x-x--x-x-x-x-x-x-x|
B-x-x-x-x-x-x-x--x-x-x-x-x-x-x|
G-x-x-x-x-x-x-x--x-x-x-x-x-x-x|
D-x-x-x-x-x-x-x--x-x-x-x-x-x-x|
A-x-x-x-x-x-x-x--x-x-x-x-x-x-x|
D-x-x-x-x-x-x-x--x-x-x-x-x-x-x|

Same thing about the pick on the strings on the second part.
Then, after that:

E----------------------------------|
B----------------------------------|
G----------------------------------|
D-6-6-6-6-6-6-6-6-6-6-4-4-4-4-4----|
A-6-6-6-6-6-6-6-6-6-6-4-4-4-4-4----|
D-6-6-6-6-6-6-6-6-6-6-4-4-4-4-4----|

E----------------------------|
B----------------------------|
G----------------------------|
D-6-6-6-6-6-6-6-6-6-6-4\-----|
A-6-6-6-6-6-6-6-6-6-6-4\-----|
D-6-6-6-6-6-6-6-6-6-6-4\-----|

pm                      pm
E----------------------------\-/|
B----------------------------\-/|
G----------------------------\-/|
D----------------------------\-/|
A----------------------------\-/|
D-6-6--6-6-6---4-4-4--6-6^---\-/|

Finally, solo (works better with wah wah):

pick on the 'e' string, then quickly:

D-/12-12-12-12-12-12-12-12-15^-/12-12-12-12-12-12-12-12-15^-10/16\8/14\12\5\2--|
A-------------------------------------------------------------------------------|
D-------------------------------------------------------------------------------|
(only so you can know it is on the right "D")
Chorus again

E-----------------------------|
B-----------------------------|
G-----------------------------|
D-9-9-9-9-9-9-9--7-7-7-7-7-7-6|
A-9-9-9-9-9-9-9--7-7-7-7-7-7-6|
D-9-9-9-9-9-9-9--7-7-7-7-7-7-6|

E-x-x-x-x-x-x-x--x-x-x-x-x-x-x|
B-x-x-x-x-x-x-x--x-x-x-x-x-x-x|
G-x-x-x-x-x-x-x--x-x-x-x-x-x-x|
D-x-x-x-x-x-x-x--x-x-x-x-x-x-x|
A-x-x-x-x-x-x-x--x-x-x-x-x-x-x|
D-x-x-x-x-x-x-x--x-x-x-x-x-x-x|

E-----------------------------|
B-----------------------------|
G-----------------------------|
D-9-9-9-9-9-9-9--7-7-7-7-7-7-6|
A-9-9-9-9-9-9-9--7-7-7-7-7-7-6|
D-9-9-9-9-9-9-9--7-7-7-7-7-7-6|

a few palm mutes, and then:

E----------------------------------|
B----------------------------------|
G----------------------------------|
D-6-6-6-6-6-6-6-6-6-6-4-4-4-4-4----|
A-6-6-6-6-6-6-6-6-6-6-4-4-4-4-4----|
D-6-6-6-6-6-6-6-6-6-6-4-4-4-4-4----|

cock, cock, cock it.