Marilyn Manson - Saint Live Text Guitar Tab

Learn song with the online tabulature player
this was tabbed from the rock am ring in 2003 and this is right also every part of this 
at least has distortion on

Intro

------------------------------------------------------|
------------------------------------------------------|
------------------------------------------------------|
------------------------------------------------------|
---5/88888----8/10--5-5--303---5/88888----8/10----5-5-|
0---------0-------00---00---0---------0-------00------|   repeat

Verse 1

repeast intro first then do below
E----------------------------------------|
B----------------------------------------|
G----------------------------------------|
D----------------------------------------|
A----------------------------------------|
D-0-------0--------- repeat intro again--| x1

Pre-Chorus

E----------------------------------------------------------|
B----------------------------------------------------------|
G-1010101010/12-12\7-7777\5-5/10-10101010/12-12\7-777-57---|
D-1010101010/12-12\7-7777\5-5/10-10101010/12-12\7-777-57---|  x2
A--8-8-8-8-8/10-10\5-5555\3-3/8--8-8-8-8/ 10-10\5-555-35---|
D----------------------------------------------------------|

Chorus

E------------------|
B------------------|
G------------------|
D-00--00--00-0-0---|
A-00--00--00-0-0---|
D-00--00--00-0-0---|  x4


Post-Chorus (its only after this chorus and do it with a chorus/flanger)

E-----------------------------|
B-----------------------------|
G-10-101010/12-12---7-777\5-5-|
D-10-101010/12-12---7-777\5-5-|
A--8--8-8-8/10-10---5-555\3-3-|
D-----------------------------|

E----------------------------|
B----------------------------|
G----------------------------|
D-10-101010/12-12---7-777777-|
A-10-101010/12-12---7-777777-|
D--8--8-8-8/10-10---5-555555-|


Verse 2

just repeat the intro x2

Pre-Chorus

E----------------------------------------------------------|
B----------------------------------------------------------|
G-1010101010/12-12\7-7777\5-5/10-10101010/12-12\7-777-57---|
D-1010101010/12-12\7-7777\5-5/10-10101010/12-12\7-777-57---|  x2
A--8-8-8-8-8/10-10\5-5555\3-3/8--8-8-8-8/ 10-10\5-555-35---|
D----------------------------------------------------------|


Chorus

E------------------|
B------------------|
G------------------|
D-00--00--00-0-0---|
A-00--00--00-0-0---|
D-00--00--00-0-0---|  x4


Post Chorus 2 (on the /1312-11-10 part john 5 uses his digitech whammy and puts it an 
up but the open D is normal and not an octave up)

E-----/1312--11-10-|
B------------------|
G------------------|  x4  (the last time use a chorus/flanger but still put the
D-0----------------|    e string part an octave up)
A------------------|
D------------------|


Chorus

E------------------|
B------------------|
G------------------|
D-00--00--00-0-0---|
A-00--00--00-0-0---|
D-00--00--00-0-0---|  x4

After Chorus 3 ( John 5 again uses his digitech whammy but this down an octave down for all of it)


E----------------------------------------------------------|
B----------------------------------------------------------|
G----------------------------------------------------------|
D----------------------------------------------------------|
A--8-8-8-8-8/10-10\5-5555\3-3/8--8-8-8-8/ 10-10\5-555-35---|  x2
D----------------------------------------------------------|


Chorus

E------------------|
B------------------|
G------------------|
D-00--00--00-0-0---|
A-00--00--00-0-0---|
D-00--00--00-0-0---|  x8


thats it,its all in order if u have any questions email me at giannaluva65@aol.com
or IM meat giannaluva65, i can try to rip the video from the dvd if you dont have it,
contact me

please rate! this is my first tab and i tried to get the timing right but if you cant
it let me know and as i said ill try to rip the video as the song is quite different,
you try to download it off limewire