Marilyn Manson - Scardy Cat Text Guitar Tab

Learn the song with the online tablature player
main riff

-----777-666-777--
-6-6-777-666-777--
-6-6-555-444-555--
-4-4--------------

verse

---77-66/7-
-6-77-66/7-
-6-55-44/5-

"what can you say, what will you do?"

fill

-----5-4-
-6-5-3-2-
-4-3-----

chorus

-555-555-555-10/9-555-555-555-10/9-777-777-777-12/11--
-555-555-555-10/9-555-555-555-10/9-777-777-777-12/11--
-333-333-333--8/7-333-333-333--8/7-555-555-555-10/-9--
"scardy cat, scardy cat, scardy cat, you're a-"
"scardy cat, scardy cat, scardy cat, you're a-"

bridge

-9-5-10-5--9-12-8--99-55-10-5-10-10-12-12-9-
-9-5-10-5--9-12-8--99-55-10-5-10-10-12-12-9-
-7-3--8-3--7-10-6--77-33--8-3--8--8-10-10-7-
"I can see you, you can't hide. the coward never seems to spit in his own wine..."

outro riff

-7777-6666-7/-
-7777-6666-7/-
-5555-4444-5/-

      Great song, just work with what I have for you here... there's more, but I can't figure it out.

          ---------------------|----------|---------------------------------------------
          ---------------------|----------|---------------------------------------------
          ---------------------|----------|---------------------------------------------
          -55-888-777-10-10-10-|-5-4-10-9-|---------------------------------------------
          -33-666-555--8--8--8-|-3-2-8--7-|-555-555-555-6-4-----------------------------
          ---------------------|----------|-333-333-333-4-2-----------------------------
           Intro/verse           fill      chorus