Marilyn Manson - Slo-mo-tion Text Guitar Tab

Learn the song with the online tablature player
( ) - soft touch in the note
+   - harmonic (regular, not pinch)
pm  - palm mute
x   - dead note
\   - slide down
/   - slide up
h   - hammer on
^   - bend
~   - vibrato

At 00:26 and 00:51 you'll play this:

E--------------------------------------------------------------|
B--------------------------------------------------------------|
G--------------------------------------------------------------|
D--5-5-5-5-5---5-5-5-5--5-5-5-5-5-----5-5-5-5-4-4-4-4-2-2-2-2-2|
A--5-5-5-5-5---5-5-5-5--5-5-5-5-5-----5-5-5-5-4-4-4-4-2-2-2-2-2|
D--5-5-5-5-5---5-5-5-5--5-5-5-5-5-----5-5-5-5-4-4-4-4-2-2-2-2-2|

E-----------------------------------------------|
B-----------------------------------------------|
G-----------------------------------------------|
D--2-2-2-2--2-2-2-2-2--2-2-2-2-4-4-4-4-5-5-5-5-5|
A--2-2-2-2--2-2-2-2-2--2-2-2-2-4-4-4-4-5-5-5-5-5|
D--2-2-2-2--2-2-2-2-2--2-2-2-2-4-4-4-4-5-5-5-5-5|

At 01:03 you can play the in-tune guitar in whatever rythm you deserve, because there
are not really a guitar playing at this part, but you can play using these
power chords (each one repeatedly, of course):

E--------------|
B--------------|
G--------------|
D--5-4-2--2-4-5|
A--5-4-2--2-4-5|
D--5-4-2--2-4-5|

Or, you can play as I like to do it, playing the synth that is at the background which
 is using the same notes, feel free to hit them as much as
you want (I rather just hit them once or twice, so it will get that synth effect),
you can play it different, but remember to stay at the right tempo:

E---------------------|
B---~8-~7-~5-~5-~7-~8-|
G---------------------|
D---------------------|
A---------------------|
D---------------------|

1:30

  pm
E-----|
B-----|
G-----|
D-5/2-|
A-5/2-|
D-5/2-|

1:32

Then rape your strings with the pick to make that sound

1:34
              +                      + +                             +
E---------------------------------------------------------------------|
B---------------------------------------------------------------------|
G---------------------------------------------------------------------|
D--5-5-5-5-5--5--5-5-5-5--5-5-5-5-5--5-5--5-5-5-5-4-4-4-4-2-2-2-2-2--5|
A--5-5-5-5-5-----5-5-5-5--5-5-5-5-5-------5-5-5-5-4-4-4-4-2-2-2-2-2---|
D--5-5-5-5-5-----5-5-5-5--5-5-5-5-5-------5-5-5-5-4-4-4-4-2-2-2-2-2---|

                       +
E-------------------------------------------|
B-------------------------------------------|
G-------------------------------------------|
D--2-2-2-2--2-2-2-2-2--5---4-4-4-4-5-5-5-5-5|
A--2-2-2-2--2-2-2-2-2------4-4-4-4-5-5-5-5-5|
D--2-2-2-2--2-2-2-2-2------4-4-4-4-5-5-5-5-5|

01:59

E---------------------------------------------------------------|
B---------------------------------------------------------------|
G---------------------------------------------------------------|
D--5-5-5-5-5---5-5-5-5--5-5-5-5-5------5-5-5-5-4-4-4-4-2-2-2-2-2|
A--5-5-5-5-5---5-5-5-5--5-5-5-5-5------5-5-5-5-4-4-4-4-2-2-2-2-2|
D--5-5-5-5-5---5-5-5-5--5-5-5-5-5------5-5-5-5-4-4-4-4-2-2-2-2-2|

                                                  +
E--------------------------------------------------|
B--------------------------------------------------|
G--------------------------------------------------|
D--2-2-2-2--2-2-2-2-2--2-2-2-2-4-4-4-4-5-5-5-5-5--5|
A--2-2-2-2--2-2-2-2-2--2-2-2-2-4-4-4-4-5-5-5-5-5---|
D--2-2-2-2--2-2-2-2-2--2-2-2-2-4-4-4-4-5-5-5-5-5---|

                       + +                             +
E-------------------------------------------------------|
B-------------------------------------------------------|
G-------------------------------------------------------|
D--5-5-5-5--5-5-5-5-5--5-5--5-5-5-5-4-4-4-4-2-2-2-2-2--5|
A--5-5-5-5--5-5-5-5-5-------5-5-5-5-4-4-4-4-2-2-2-2-2---|
D--5-5-5-5--5-5-5-5-5-------5-5-5-5-4-4-4-4-2-2-2-2-2---|

                       +
E-------------------------------------------|
B-------------------------------------------|
G-------------------------------------------|
D--2-2-2-2--2-2-2-2-2--5---4-4-4-4-5-5-5-5-5|
A--2-2-2-2--2-2-2-2-2------4-4-4-4-5-5-5-5-5|
D--2-2-2-2--2-2-2-2-2------4-4-4-4-5-5-5-5-5|

02:24

E---------------------|
B---~8-~7-~5-~5-~7-~8-|
G---------------------|
D---------------------|
A---------------------|
D---------------------|

Or

E--------------|
B--------------|
G--------------|
D--5-4-2--2-4-5|
A--5-4-2--2-4-5|
D--5-4-2--2-4-5|

02:50

pick on strings to make that sound again

03:15 (solo)

E----------------------------------------------|
B------------------5^------------------------5^|
G----------------------------------------------|
D---5-5-5-5----7^-----------5-5-5-5------7^----|
A----------------------------------------------|
D----------------------------------------------|

Fast hits and bends here   slower bends here
E--5^5^5^5^5^5^5^5^--------5^5^5^5^----------|
B--------------------------------------------|
G--------------------------------------------|
D--------------------------------------------|
A--------------------------------------------|
D--------------------------------------------|

This solo is played twice. It's very layered at a few parts with harmonics and muted
strings, but these are the notes.

03:40

E---------------------|
B---~8-~7-~5-~5-~7-~8-|
G---------------------|
D---------------------|
A---------------------|
D---------------------|

Or

E--------------|
B--------------|
G--------------|
D--5-4-2--2-4-5|
A--5-4-2--2-4-5|
D--5-4-2--2-4-5|

The end.

Thank you.