Marilyn Manson - Strange Same Dogma Text Guitar Tab

Learn the song with the online tablature player
Marilyn Manson (and the Spooky Kids)
                         "Strange Same Dogma"
As Heard on: Beaver Meat Cleaver Beat (1990),Big Black Bus (1990),and Family Jams (1992)

This song is on several of the demos, as listed above, and each of them is a little
However, a lot of parts in the song stay the same.

There is a tab already on here for it, but to put it plainly, it sucks. Not trying to be
but it does. Doesn't sound ANYTHING like the recording. Also, um the guy who tabbed it
got the words in the wrong order... Anyway, here's an accurate version.

Please note that this was tabbed from the Family Jams version, as it is of the best quality

KEY: . = Palm Mute

(Some sliding and other stuff at the beginning)

INTRO
-----------------------------------------------------------------------|
-----------------------------------------------------------------------|
-----------------------------------------------------------------------|
---------------------------------------------------------------3-------|
-----3-3-3-3-3-3-3---3-3-3--6-3-3-3---6-6-6-6-6-6-6-6--5-6-6-6---6-6-6-|
---6---------------6---------------------------------------------------|

------------------------------------------------------------------------|
------------------------------------------------------------------------|
------------------------------------------------------------------------|
-------------------------------------3-3-3-3-5-5-5-5--3-3-5-5-3-3-5-5---|
---5-5-5-5-5-5-5-5--3-5-5-5--6-5-5-5------------------------------------|
------------------------------------------------------------------------|

VERSE
------------------------------------------------------------------------|
------------------------------------------------------------------------|
-------5-----5-----5-5-5------8-----8-----8-8-8------7-----7-----7-7-7--|
-------5-----5-----5-5-5------8-----8-----8-8-8------7-----7-----7-7-7--|
---3-3-3-3-3-3-3-3-3-3-3--6-6-6-6-6-6-6-6-6-6-6--5-5-5-5-5-5-5-5-5-5-5--|
------------------------------------------------------------------------|
   . .   . .   . .        . .   . .   . .        . .   . .   . .

--------------------------|
--------------------------|
-------5-----5-----5-5-5--|
-------5-----5-----5-5-5--|
---3-3-3-3-3-3-3-3-3-3-3--|
--------------------------|
   . .   . .   . .

PRE CHORUS
-----------|
-----------|
-----------|
-----------| (Play 4 times)
---3-6-3---|
---------6-|

CHORUS
"I don't need your hate!")
---------------|
---------------|
---5-5-5-5-5---|
---5-5-5-5-5---|(Play twice and then let the same chord ring)
---3-3-3-3-3---|
---------------|

INTRO again

VERSE again

PRE CHORUS again

CHORUS again
4 times instead of 2)

LITTLE WAH PART (play it one of 2 ways)(Play whichever one twice)

--------------------     --------------------|
--------------------     ---4-4-4-4-1-1-1-1--|
---8-8-8-8-5-5-5-5--or   --------------------|
---8-8-8-8-5-5-5-5--     --------------------|
---6-6-6-6-3-3-3-3--     --------------------|
--------------------     --------------------|

SOLO
high)(use wah)(I wrote it two ways, high, and low)
---------------------------------------------------------------------------|
------13-13-13-13-13-13-13---13-13-13-16-13-13-13--16-16-16-16-16-16-16-16-|
---15----------------------15----------------------------------------------|
---------------------------------------------------------------------------|
---------------------------------------------------------------------------|
---------------------------------------------------------------------------|

---------------13------------------------------------------------------------|
---15-16-16-16----16-16-16--15-15-15-15-15-15-15-15--13-15-15-15-16-15-15-15-|
-----------------------------------------------------------------------------|
-----------------------------------------------------------------------------|
-----------------------------------------------------------------------------|
-----------------------------------------------------------------------------|

---13-13-13-13-15-15-15-15--13-13-15-15--13-13-15-15---|
-------------------------------------------------------|
-------------------------------------------------------|
-------------------------------------------------------|
-------------------------------------------------------|
-------------------------------------------------------|

SOLO
low)(use wah)
--------------------------------------------------------------1------|
-----1-1-1-1-1-1-1----1-1-1-4-1-1-1--4-4-4-4-4-4-4-4--3-4-4-4--4-4-4-|
---3----------------3------------------------------------------------|
---------------------------------------------------------------------|
---------------------------------------------------------------------|
---------------------------------------------------------------------|

--------------------------------------1-1-1-1-3-3-3-3--1-1-3-3-1-1-3-3-|
---3-3-3-3-3-3-3-3--1-3-3-3--4-3-3-3-----------------------------------|
-----------------------------------------------------------------------|
-----------------------------------------------------------------------|
-----------------------------------------------------------------------|
-----------------------------------------------------------------------|

VERSE again

then some screwing around with the used chords and wah

VERSE VARIATION
---------------------------------------------------------------|
---------------------------------------------------------------|
---5-5-5-5--5-5-5-5--5-5-5--5-5--8-8-8-8--8-8-8-8--8-8-8--8-8--|
---5-5-5-5--5-5-5-5--5-5-5--5-5--8-8-8-8--8-8-8-8--8-8-8--8-8--|
---3-3-3-3--3-3-3-3--3-3-3--3-3--6-6-6-6--6-6-6-6--6-6-6--6-6--|
---------------------------------------------------------------|

---------------------------------------------------------------|
---------------------------------------------------------------|
---7-7-7-7--7-7-7-7--7-7-7--7-7--5-5-5-5--5-5-5-5--5-5-5--5-5--|
---7-7-7-7--7-7-7-7--7-7-7--7-7--5-5-5-5--5-5-5-5--5-5-5--5-5--|
---5-5-5-5--5-5-5-5--5-5-5--5-5--3-3-3-3--3-3-3-3--3-3-3--3-3--|
---------------------------------------------------------------|

PRE CHORUS again

CHORUS
2 times, then let chords ring, 4 times, then let chords ring)

LITTLE WAH PART again

SOLO AGAIN
OR INTRO WITH WAH or however the hell you wanna play it)

VERSE VARIATION again

ANOTHER VERSE VARIATION

---------      ---------     ---------     ---------|
---------      ---------     ---------     ---------|
-------5- (x4) -------8- (x4)-------7- (x4)-------5-| (x4)
-------5-      -------8-     -------7-     -------5-|
---3-3-3-      ---6-6-6-     ---5-5-5-     ---3-3-3-|
---------      ---------     ---------     ---------|
   . .            . .           . .           . .

END (Use Delay as well as distortion and bend slightly)
--------|
--------|
---15\--|
---13\--|
--------|
--------|