Marilyn Manson - The Flowers Of Evil Text Guitar Tab

Learn song with the online tabulature player
Verse
e|---------------------|
B|---------------------|
G|---------------------|
D|---------------------|
A|---------------------|
D|--0-0-12-0-0-12-0-0--|
 

Chrous
e|--------------|
B|--------------|
G|--7--10-5--4--|
D|--7--10-5--4--|
A|--5--8--3--2--|
D|--------------|
Hit each note 8 times