Mario - Let Me Love You Acoustic Text Guitar Tab

Learn the song with the online tablature player
Intro

e:----5s7-------------------5h7-3----5s7s5s7----------------------5h7-3-----|
B:------------5h7p5--------------------------------5h7p5--------------------|
G:---4------4--------2-2--2--------4-------------4---------2-2--2-----------|
D:---2------2-7------0-0--0--------2-------------2-7-------0-0--0-----------|
A:-0------0---------0-0--0-------0-------------0----------0-0--0------------|
E:--------------------------------------------------------------------------|

e:----5s7-------------------5h7-3----5s7s5s7-------------------2-------|
B:------------5h7p5--------------------------------5h7p5---------------|
G:---4------4--------2-2--2--------4-------------4---------2-2---------|
D:---2------2-7------0-0--0--------2-------------2-7-------0-0---------|
A:-0------0---------0-0--0-------0-------------0----------0-0----------|
E:---------------------------------------------------------------------|

Verse 1

e:----5s7s5------------------5h7-3----5s7s5s7-------------x--------5h7-3---|
B:-------------5h7p5--------------------------------5h7p5-x----------------|
G:---4-------4--------2-2--2--------4-------------4-------x--2-2--2--------|
D:---2-------2-7------0-0--0--------2-------------2-7-----x--0-0--0--------|
A:-0-------0---------0-0--0-------0-------------0---------x-0-0--0---------|
E:--------------------------------------------------------x----------------|
                                          Right here ^^^ it sounds like he slaps the guitar maybe?

e:----5s7-------------------5h7-3----5s7--------------------------5h7-3---|
B:------------5h7p5--------------------------------5h7p5------------------|
G:---4------4--------2-2--2--------4-------------4---------2-2--2---------|
D:---2------2-7------0-0--0--------2-------------2-7-------0-0--0---------|
A:-0------0---------0-0--0-------0-------------0----------0-0--0----------|
E:------------------------------------------------------------------------|

Chorus

e:----5s7s5---------------------5h7-3----5s7s5s7----------------------5h7-3|
B:-------------5h7p5-7--------------------------------5h7p5-7--------------|
G:---4-------4-------7---2-2--2-------4-------------4-------7---2-2--2-----|
D:---2-------2-7-----7---0-0--0-------2-------------2-7-----7---0-0--0-----|
A:-0-------0------------0-0--0------0-------------0------------0-0--0------|
E:-------------------------------------------------------------------------|

e:----5s7s5-------------------------|
B:-------------5h7p5-7--------3-----|
G:---4-------4-------7---2-2---2----|
D:---2-------2-7-----7---0-0----4---|
A:-0-------0------------0-0------0--|
E:----------------------------------|

Verse 2

e:----5s7-------------------5h7-3----5s7s5----------------------5h7-3---|
B:------------5h7p5------------------------------5h7p5------------------|
G:---4------4--------2-2--2--------4-----------4---------2-2--2---------|
D:---2------2-7------0-0--0--------2-----------2-7-------0-0--0---------|
A:-0------0---------0-0--0-------0-----------0----------0-0--0----------|
E:----------------------------------------------------------------------|

e:----5s7s5-----------------5h7-3----5s7--------------------------5h7-3---|
B:------------5h7p5--------------------------------5h7p5------------------|
G:---4------4--------2-2--2--------4-------------4---------2-2--2---------|
D:---2------2-7------0-0--0--------2-------------2-7-------0-0--0---------|
A:-0------0---------0-0--0-------0-------------0----------0-0--0----------|
E:------------------------------------------------------------------------|

Chorus

e:----5s7-------------------5h7-3-----5s7s5s7---------------------5h7-3---|
B:------------5h7p5--------------------------------5h7p5------------------|
G:---4------4--------2-2--2--------4-------------4---------2-2--2---------|
D:---2------2-7------0-0--0--------2-------------2-7-------0-0--0---------|
A:-0------0---------0-0--0-------0-------------0----------0-0--0----------|
E:------------------------------------------------------------------------|

Bridge

e:----------------------------------------------------|
B:---------------3--------------5----------------3----|
G:--9-----12-0----2----10-10-----4----12-0-12-----2---|
D:---5-------------------7----------------------------|
A:-0-----0------0-----0--------0-----0----------0-----|
E:----------------------------------------------------|

Chorus

e:----5s7-------------------5h7-3----5s7s5s7----------------------5h7-3---|
B:------------5h7p5--------------------------------5h7p5------------------|
G:---4------4--------2-2--2--------4-------------4---------2-2--2---------|
D:---2------2-7------0-0--0--------2-------------2-7-------0-0--0---------|
A:-0------0---------0-0--0-------0-------------0----------0-0--0----------|
E:------------------------------------------------------------------------|
-

e:----5s7-------------------5h7-3----5s7s5s7----------------------2-------|
B:------------5h7p5--------------------------------5h7p5------------------|
G:---4------4--------2-2--2--------4-------------4---------2-2--2---------|
D:---2------2-7------0-0--0--------2-------------2-7-------0-0--0---------|
A:-0------0---------0-0--0-------0-------------0----------0-0--0----------|
E:------------------------------------------------------------------------|