Mario - Underworld Text Guitar Tab

Learn the song with the online tablature player
Underworld Guitar Tab

Super Mario bros
By: grandegreve
!-*GRANDE*-!

e----------|   ----------|
B----------|   ----------|
G---4--2--2|   ----------|
D----------|   ---5--2--3|
A--2-----0-|   ----------|
E-----6----|x2 --3--0--1-| x2

e---------------------------------------------|
B---------------------------------------------|
G---------------------------5-4-3-------------|
D---------------------6-5-4-------3-----------|
A--8-7-6-5-8-7----6-5---------------4-3-2-1---|
E--------------6-5----------------------------|repeat from start