Marion - Sleep Text Guitar Tab

Learn the song with the online tablature player
                                 Sleep
                                 Marion
INTRO                                          G  A  Em
--------------------------------------------!!-33-00-0000-!!
---88888888-77777777-88888888-7777-1111-----!!-33-22-0000-!!
---99999999-77777777-99999999-7777-2222-----!!.00-22-0000.!!
--------------------------------------------!!.00-22-2222.!!
--------------------------------------------!!-22-00-2222-!!
--------------------------------------------!!-33----0000-!!

---0-3-2-3-2---0---0-3-2-3-2-0- -3-2-3-2--- ---0---3-2-0--|
-3-----------3---3------------- ---------3- -3---3--------|
------------------------------- ----------- --------------|
------------------------------- ----------- --------------|
------------------------------- ----------- --------------|
------------------------------- ----------- --------------|

MAIN RIFF                RIFF 2
   Em   D  Am   C        Em   D    Am   C
!!-7777-55-5555-33-!!-!!-7777-5555-5555-3333-!!
!!-8888-77-5555-55-!!-!!-8888-7777-5555-5555-!!
!!.9999-77-5555-55.!!-!!.9999-7777-5555-5555.!!
!!.9999-77-7777-55.!!-!!.9999-7777-7777-5555.!!
!!-7777-55-7777-33-!!-!!-7777-5555-7777-3333-!!
!!---------5555----!!-!!-----------5555------!!

 RIFF 3
     Em        D       Am        C      -Chords played over top
------------------------------------------------------|
--88888888-77777777-88888888-5555-7777----------------|
--99999999-77777777-99999999-5555-7777----------------|
------------------------------------------------------|
------------------------------------------------------|
------------------------------------------------------|
  C    D  C    D
--3333-55-3333-55--!!-----------------------!!----------------|
--5555-77-5555-77--!!-----------------------!!----------------|
--5555-77-5555-77--!!.0-0-0-0-----0--------.!!-0-0-0---0------|
--5555-77-5555-77--!!.--------4-4---4-2-0-2.!!-------4---4--2-|
--3333-55-3333-55--!!-----------------------!!----------------|
-------------------!!-----------------------!!----------------|

Repeat Main Riff then Riff 2 then Riff 3
Finally repeat intro and play this CODA

CODA
   Am   G
!!-5555-3333-!!
!!-5555-3333-!!
!!.5555-4444.!!
!!.7777-5555.!!
!!-7777-5555-!!
!!-5555-3333-!!

        Mark Curran