Marius Muller - Flaaklypa Text Guitar Tab

Learn the song with the online tablature player
e |-----0-5-7-8-7-5-3-0------------|--------------------------------|
B |-------------------------0-3-5-6|-5-3-1-3-5-3-1-0----------------|
G |--------------------------------|--------------------------------|
D |--------------------------------|--------------------------------|
A |--------------------------------|--------------------------------|
E |--------------------------------|--------------------------------|

e |-----0-5-7-8-7-5-3-0------------|--------------------------------|
B |--------------------------0-3-5-|3-1-0---------------------------|
G |--------------------------------|--------------------------------|
D |--------------------------------|--------------------------------|
A |---(EG KAN IKKJE SLUTTEN)-------|--------------------------------|
E |--------------------------------|--------------------------------|