Marjorie Fair - My Sun Is Setting Over Her Magic Text Guitar Tab

Learn the song with the online tablature player
Intro/Verse:

e-----2-------2--------2-3-2----2-3-2------------------------|
B---0--0----0--0-----1--------1------------------------------|
G-0-------0--------------------------------------------------|(quite slowly)
D------------------------------------------------------------|
A------------------------------------------------------------|
E------------------------------------------------------------|

Chorus

     G   F    C               F    C
e--3--1--0--2--2--1--0--0------------------------------------------------|
B--3--1--1--2--3--1--1--3------------------------------------------------|
G--0--2--0--3--4--2--0--0------------------------------------------------|
D--0--3--2--4--4--3--2--4------------------------------------------------|
A--2--3--3--4--2--3--3--5------------------------------------------------|
E--3--1--x--2--2--1--x--x------------------------------------------------|

you should find the strumming pattern for the chorus by yourself.that's about it,it
pretty messy,but hey,at least it's correct.Enjoy