Mark Lanegan - Josephine Text Guitar Tab

Learn the song with the online tablature player
Note: This song can be played in standard and will sound fine but if you listen to the
song, the guitar is slightly sharp. Tune to standard at 450 hz if you want it exact.

Order:
Verse       Verse       Fill(4x)

Pre-Chorus  Pre
Chorus  Chorus (4x)

Chorus      Chorus
4x)

 Verse
  Gtr I
  E E E E E E E E E E E E E E E E E E E E E E E E E E E E E E Q     4x
|-----------------------------------------------------------------------||
|----------------------------------------------------------------------o||
|-----------------------------------------------------------------------||
|---5---4---------------------------------------------------------------||
|-----------7---6---9---7---2-------2-5---5---5---5---2---2---2---2----o||
|-0---0---0---0---0---0---0---0-0-3-----0---0---0---0---0---0---0-------||

 Pre-Chorus
   E E  E E  E E  E E    E E  E E  E E  Q
|---------------------|--------------------|
|---------------------|--------------------|
|-11---11---11---11---|-11---11---11---11--|
|----9----9----9----9-|----9----9----9-----|
|---------------------|--------------------|
|---------------------|--------------------|

  E E E E E E E E   E E E E E E E E  3x
|-----------------|------------------||
|-----------------|-----------------o||
|-----------------|------------------||
|-----------------|------------------||
|-2---2---2---2---|-2---2---2---2---o||
|---0---0---0---0-|---0---0---0---0--||

   E E  E E  E E  E E    E E  E E  E E  Q
|---------------------|----------------------|
|---------------------|----------------------|
|-11---11---11---11---|-11---11---11---11----|
|----9----9----9----9-|----9----9----9-------|
|---------------------|----------------------|
|---------------------|----------------------|

 Chorus
  E E E E E Q  E E E E E E Q  E E E E E E E E Q  E E E E E E E
|------------------------------------------------------------------||
|-----------------------------------------------------------------o||
|-9-9-9-9-9-9--6-7-7-7-7-7-7------------------9--9-9-9-9-9-9-9-----||
|-9-9-9-9-9-9--6S7-7-7-7-7-7--4S5-5-5-5-5-5---9--9-9-9-9-9-9-9-----||
|-7-7-7-7-7-7--4-5-5-5-5-5-5--4-5-5-5-5-5-5---7--7-7-7-7-7-7-7----o||
|-----------------------------2-3-3-3-3-3-3-0----------------------||

 Fill
  E E E E E E E E E E E E E E Q  E E E E E E E E   E E E E E E E E
|------------------------------------------------|--------------------||
|------------------------------------------------|-------------------o||
|------------------------------------------------|--------------------||
|-4---4---4---4---4---4---4---4--2-2-2-2-2-2-2-2-|-2-2-2-2-2-2-2-2----||
|---2---2---2---2---2---2---2----2-2-2-2-2-2-2-2-|-2-2-2-2-2-2-2-2---o||
|--------------------------------0-0-0-0-0-0-0-0-|-0-0-0-0-0-0-0-0----||