Mark Lanegan - Resurrection Song Text Guitar Tab

Learn song with the online tabulature player
Tabbed by: Lady Baglady
Email: Scraps@sealltsound.de

Tuning: Half step down (Eb, Ab, Db, Gb, Bb, eb)


Intro:

e|----------------------------------------------------------|
B|------3------3------3------3------3------3------3------3--|
G|----2------2------2------2------2------2------2------2----|
D|--3------0------3------0------3------0------3------0------|
A|----------------------------------------------------------|
E|----------------------------------------------------------| x5


Chorus:

e|----------------------------------------------------------|
B|----------------------------------------------------------|
G|------0------0--------------------3------3------3------3--|
D|----2------2--------0------0----2------2------2------2----|
A|--3------3--------2------2----3------0------3------0------|
E|----------------3------3----------------------------------| x2


Then just repeat those two parts until the end.