Mark Of Cain - Familiar Territory Text Guitar Tab

Learn the song with the online tablature player
I don't have all the riffs, but i didn't get long to tab this

RIFF 1
e|--------------------------------------------|
B|--------------------------------------------|
G|--------------------------------------------|
D|--------------------------------------------|
A|-5-3-0-5-3-0-5-3-0- ...you get the picture -|
D|-5-3-0-5-3-0-5-3-0--------------------------|

RIFF 2
e|-----------------------------------------------------------|
B|-----------------------------------------------------------|
G|-----------------------------------------------------------|
D|-----------------------------------------------------------|
A|- some chords i didn't ------0-x-0-0-x-0-0-x-0-0-x-0-0-x-0-|
D|--- get time to figure out --0-x-0-0-x-0-0-x-0-0-x-0-0-x-0-|

RIFF 3
e|------------------------------------------------------------>
B|------------------------------------------------------------>
G|------------------------------------------------------------>
D|-0-12-0-10-0-9-0-10-5-5-5-5--0-12-0-10-0-9-0-10-15-15-15-15->
A|-0-12-0-10-0-9-0-10-5-5-5-5--0-12-0-10-0-9-0-10-15-15-15-15->
D|-0-12-0-10-0-9-0-10-5-5-5-5--0-12-0-10-0-9-0-10-15-15-15-15->

>---------------------------------------------|
>---------------------------------------------|
>---------------------------------------------|
>-0-12-0-10-0-9-0-10-5-5-5-5------------------|
>-0-12-0-10-0-9-0-10-5-5-5-5--0-3-3-0-0-3-0-5-|
>-0-12-0-10-0-9-0-10-5-5-5-5--0-3-3-0-0-3-0-5-|

MAIN RIFF:
e|-----------------------------|
B|-----------------------------|
G|-----------------------------|
D|-----------------------------|
A|-5-3-0---0-3-0-5-3-0---0-3-5-|
D|-5-3-0---0-3-0-5-3-0---0-3-5-|

CHORUS
e|---------------------------------------|
B|---------------------------------------|
G|---------------------------------------|
D|---------------------------------------|
A|-5-3-0---0-3-0-5-3-0---0-3-5-----0-3-5-|
D|-5-3-0---0-3-0-5-3-0---0-3-5-----0-3-5-|
listen for timing