Mark Provart - Circle Backwards Text Guitar Tab

Learn the song with the online tablature player
intro
x2) and verse(x6)

E----------------------------------|
B---3-3-------3-3------------------|
G-------0---0----------------------|
D--4-4-4-4-4-4-4-4-----------------|
A-2--------------------------------|
E---------3------------------------|

soft chorus(x2)

E-----7-------5--------3-------3----|
B---8--8-8--7---7-7--5--5-5--5--5-5-|
G-----------------------------------|
D--9-9--9--7-7---7--5-5--5--5-5--5--|
A-7-------5--------3-------3--------|
E-----------------------------------|

verse 2
same as verse 1)

this is where it starts going into hard rock