Mark Tremonti - So Youre Afraid Text Guitar Tab

Learn the song with the online tablature player
                             So You're Afraid - The Tremonti Project

 Guitar 1 (Chorus)

D#|------------------------------------------------------------------------------------|
A#|------------------------------------------------------------------------------------|
F#|----------------------------------------------------------------14----------14------|
C#|--10-10--10-10-10-10-10-10-x-x-10-10--10-10-10-10-10-10---12-12----12-12-12----12---|
G#|--10-10--10-10-10-10-10-10-x-x-8--8---8--8--8--8--8--8----12----------10------------|
C#|--10-10--10-10-10-10-10-10-x-x-8--8---8--8--8--8--8--8----12----------10------------|

D#|------------------------------------------------------------------------------------|
A#|------------------------------------------------------------------------------------|
F#|--14-14-14-14-14-14-14-14-14/16-16-16-16-16-16-16-----------------------------------|
C#|--x--x--x--x--x--x--x--x--x-/x--x--x--x--x--x--x------------------------------------|
G#|--12-12-12-12-12-12-12-12-12/14-14-14-14-14-14-14-----------------------------------|
C#|--12-12-12-12-12-12-12-12-12/14-14-14-14-14-14-14-----------------------------------|

                              ( X 2 )  on the 2nd one, hold the last note.

 Guitar 2 (Chorus)

D#|------------------------------------------------------------------------------------|
A#|------------------------------------------------------------------------------------|
F#|--9-9--9-9-9-9-9-9-9-9-10-10--10-10-10-10-10-10-10-10--x-x--10-10-10-10-10-10-10-10-|
C#|--x-x--x-x-x-x-x-x-x-x-x--x---x--x--x--x--x--x--x--x---x-x--x--x--x--x--x--x--x--x--|
G#|--7-7--7-7-7-7-7-7-7-7-8--8---8--8--8--8--8--8--8--8---x-x--8--8--8--8--8--8--8--8--|
C#|------------------------------------------------------------------------------------|

D#|------------------------------------------------------------------------------------|
A#|------------------------------------------------------------------------------------|
F#|--9-9-9-9-9-9-9-9-7-7-7-7-7-7-7-7-9-9-9-9-9-9-9-9-----------------------------------|
C#|--x-x-x-x-x-x-x-x-x-x-x-x-x-x-x-x-x-x-x-x-x-x-x-x-----------------------------------|
G#|--7-7-7-7-7-7-7-7-5-5-5-5-5-5-5-5-5-5-5-5-5-5-5-5-----------------------------------|
C#|------------------------------------------------------------------------------------|

                              ( X 2 )  on the 2nd one, hold the last note.

 Both Guitars (Heavy Part)

D#|------------------------------------------------------------------------------------|
A#|------------------------------------------------------------------------------------|
F#|------------------------------------------------------------------------------------|
C#|------------------------------------------------------------------------------------|
G#|--5-----5h6\3-----------------------------------------------------------------------|
C#|---0-0-0------0-0-9h10\7-0-0-0--3-3-3-3-3-3-5-5-2-2-2-2-2-2-2-2---------------------|
                                   (very fast tremolo picking here)
D#|------------------------------------------------------------------------------------|
A#|------------------------------------------------------------------------------------|
F#|------------------------------------------------------------------------------------|
C#|------------------------------------------------------------------------------------|
G#|--5-----6h8\5-----5p4p5-------------------------------------------------------------|
C#|---0-0-0------0-0-------0-0-0--3-3-3-3-3-3-5-5-2-2-2-2-2-2-2-2----------------------|
                                  (very fast tremolo picking here)

                         (Keep playing till end of Preview Track)