Markus Krunegard - Prinsessan Av Peking Text Guitar Tab

Learn the song with the online tablature player
                  PRINSESSAN AV PEKING - Markus Krunegard

| /   slide up
| \   slide down
| h   hammer-on
| p   pull-off

  VERS 1:

e|-0-------------------------------------------------------------------------|
B|-------3-------------------------------------------------------------------|
G|-------------4-----2-----0-----4-----2-----0-------------------------------|
D|-------------------------------------------------2-----0-------0-----------|   X 4
A|-2--2-----------2-----------------2--3--3-----------3------0-2-------------|
E|-------------------0--0--------------------------------3---------3---------|

  "bodde du jamt..."

e|---------------------------------------------------------------------------|
B|-1-----1-----------1-----1-----------0-----0-----------3-----3-------------|
G|-------------2-----------------2-----------------0-----------------2-------|
D|-------------------------------------------------------0--0------------0---|   X 2
A|-0--0-----------0--3--3-----------3----------------------------------------|
E|-------------------------------------3--3-----------3----------------------|

e|-0-------------------------------------------------------------------------|
B|-------3-------------------------------------------------------------------|
G|-------------4-----2-----0-----4-----2-----0-------------------------------|
D|-------------------------------------------------2-----0-------0-----------|   X 4
A|-2--2-----------2-----------------2--3--3-----------3------0-2-------------|
E|-------------------0--0--------------------------------3---------3---------|

  "kande igen den och dig..."

e|---------------------------------------------------------------------------|
B|-1-----1-----------1-----1-----------0-----0-----------3-----3-------------|
G|-------------2-----------------2-----------------0-----------------2-------|
D|-------------------------------------------------------0--0------------0---|   X 2
A|-0--0-----------0--3--3-----------3----------------------------------------|
E|-------------------------------------3--3-----------3----------------------|

  efter "finast av alla..."

e|-------3-----------5-----3-----------------5-----------7-----5-------------|
B|/5-----------5-----------------5----/7-----------7-----------------8-------|
G|---------------------------------------------------------------------------|
D|-------------------------------------0--0-----------0--0--0------------0---|
A|-0--0-----------0--0--0-----------0----------------------------------------|
E|---------------------------------------------------------------------------|

e|-------10----------7-----7-----------7-----------7-----5-------------------|
B|/8-----------8-----------------8-----------8-----------------7-------------|
G|----------------------------------9--------------------------------5-------|
D|-------------------------------------0--0-----------0--0--0------------0---|
A|---------------------------------------------------------------------------|
E|-0--0-----------0--0--0----------------------------------------------------|

e|-------3-----------5-----3-----------------5-----------7-----5-------------|
B|/5-----------5-----------------5----/7-----------7-----------------8-------|
G|---------------------------------------------------------------------------|
D|-------------------------------------0--0-----------0--0--0------------0---|
A|-0--0-----------0--0--0-----------0----------------------------------------|
E|---------------------------------------------------------------------------|

e|-------10----------7-----7-----------7-----------7-----5-----------5-------|
B|/8-----------8-----------------8-----------8-----------------7-------------|
G|----------------------------------9----------------------------------------|
D|-------------------------------------0--0-----------0--0--0------------0---|
A|---------------------------------------------------------------------------|
E|-0--0-----------0--0--0----------------------------------------------------|

e|-3-----------3-----2-----------2------|
B|-------5-----------------3------------|
G|--------------------------------------|
D|-0--0-----------0--0--0-----------0---|
A|--------------------------------------|
E|--------------------------------------|

  VERS 2:

e|-0-------------------------------------------------------------------------|
B|-------3-------------------------------------------------------------------|
G|-------------4-----2-----0-----4-----2-----0-------------------------------|
D|-------------------------------------------------2-----0-------0-----------|   X 4
A|-2--2-----------2-----------------2--3--3-----------3------0-2-------------|
E|-------------------0--0--------------------------------3---------3---------|

  "fast vi bara kant varann..."

e|---------------------------------------------------------------------------|
B|-1-----1-----------1-----1-----------0-----0-----------3-----3-------------|
G|-------------2-----------------2-----------------0-----------------2-------|
D|-------------------------------------------------------0--0------------0---|   X 2
A|-0--0-----------0--3--3-----------3----------------------------------------|
E|-------------------------------------3--3-----------3----------------------|

e|-0-------------------------------------------------------------------------|
B|-------3-------------------------------------------------------------------|
G|-------------4-----2-----0-----4-----2-----0-------------------------------|
D|-------------------------------------------------2-----0-------0-----------|   X 4
A|-2--2-----------2-----------------2--3--3-----------3------0-2-------------|
E|-------------------0--0--------------------------------3---------3---------|

  "men ingenting nagonsin..."

e|---------------------------------------------------------------------------|
B|-1-----1-----------1-----1-----------0-----0-----------3-----3-------------|
G|-------------2-----------------2-----------------0-----------------2-------|
D|-------------------------------------------------------0--0------------0---|   X 2
A|-0--0-----------0--3--3-----------3----------------------------------------|
E|-------------------------------------3--3-----------3----------------------|

  OSV.

  "att ratt tid och ratt plats for bada var just nu..."

e|-0-------------------------------------------------------------------------|
B|-------3-------------------------------------------------------------------|
G|-------------4-----2-----0-----4-----2-----2--------2-----3-------3------3-|
D|-------------------------------------------------0--------------------0----|   X 4
A|-2--2-----------2-----------------2--3--3--------------3--5--5-------------|
E|-------------------0--0----------------------------------------------------|

  "Du har levt..."

e|---------------------------------------------------------------------------------------|
B|-------------------------------------------------------------4--------0-----------0----|
G|--------0----------0----------0----------0----------0----------------------------------|
D|------------------------------------------------0h2------0h2------0h2---------0h2------|
A|----0h2--------0h2--------0h2--------0h2-----3--------3--------3--------3--3--------3--|
E|-3--------3-3--------3-3--------3-3--------3-------------------------------------------|

Upprepas m. lite variation