Maroon 5 - Give A Little More Acoustic Text Guitar Tab

Learn the song with the online tablature player
I tabbed this out and made an arrangement for acoustic guitar.
Throw in little fills and slap rhythms to make it tasty.
Make use of the hammer-ons in the pre-chorus. Enjoy.

Maroon 5 - Give a Little More
Tabbed out for acoustic guitar by Ian Fain

-Song Order:
A      B      A      B      A
C      D      E      C      D      E

A      B      A      B      A
C      D      E      C      D      E

F

C      D      E
C      D      E

   Section A       Section B             Section C        Section D       Section E

e------------------------------------------5-5----5~---------3-3----3-------5-5----5-5--5-|
b---6-6---6~-----------11-11-----11~-------6-6----6~---------3-3----3-------5-5----5-5--5-|
g---7-7---7~-----------12-12-----12~-------7-7----5h7~-------3-3----3-------6-6----6-6--6-|
d---7-7---7~-----------12-12-----12~-------7-7----7~---------5-5----5-------7-7----7-7--7-|
a-5---5-5-----------10----10-10----------5---5-5-------------5-3----5-------7-7----7-7--7-|
e----------------------------------------------------------3---3--3-------5---5--5------5-|

Section F
e------------------------------------------|
b------------------------------------------|
g------------------------------------------|
d-----8~----9~---8~---------8~----9~---10~-|
a-----8~----9~---8~---------8~----9~---10~-|
e-3-5-6~----7~---6~-----3-5-6~----7~---8~--|