Mars Volta - Luxury Of Infancy Text Guitar Tab

Learn the song with the online tablature player
                             Luxury of Infancy – Omar Rodriguez Lopez

Well, I started trying to tab out Omar’s solo projects, and found that this was a good
song. I tried putting it under Omar Rodriguez Lopez, but thought more people would look
I were to just say it was the Mars Volta's. Here’s what I got so far. The rhythm is
easy so you can find that out on your own. Hopefully people will start to tab out his
projects now that there’s one out there. Leave comments on how to fix it if you can.

Sorry about the timing on here. You just have to listen to the song.

e|-10b8-6---4-6b7r6-4------1-3-4-3-1---------------------------------------|
B|---------------------6-------------1h4p1h4p1h4p1h4-/6—-4/1-1h4-4/6-------|
G|-------------------------------------------------------------------------|
D|-------------------------------------------------------------------------|
A|-------------------------------------------------------------------------|
E|-------------------------------------------------------------------------|

e|-9p8p6--6-8-6/4—4-6/8---------------------------------------------11-13--|
B|------6---------------6-6-----6---------------8-6-x-6--/---13-14---------|
G|--------------------------------7-6-5/0-1/3-6----------------------------|
D|----------------------------3--------------------------------------------|
A|-------------------------------------------------------------------------|
E|-------------------------------------------------------------------------|

e|--15b16-15b-15b-15b-15b-15b--13------16p15p13-15-16—16p15p13-15h16-15h16-|
B|------------------------------13-----------------------------------------|
G|-------------------------------------------------------------------------|
D|-------------------------------------------------------------------------|
A|-------------------------------------------------------------------------|
E|-------------------------------------------------------------------------|

e|-16p15-16p15-16p15p13-13h15-13h15-13h15h16-13h15h16-16p15p13-15h16p13----|
B|---------------------------------------------------------------------13--|
G|-------------------------------------------------------------------------|
D|-------------------------------------------------------------------------|
A|-------------------------------------------------------------------------|
E|-------------------------------------------------------------------------|

e|-15h16p13-------16h18---16h18-(20p18p16-x6)-------------4-6-4-6-0-1------|
B|---------13---18------18-------------------18--18-16---------------------|
G|-------------------------------------------------------------------------|
D|-------------------------------------------------------------------------|
A|-------------------------------------------------------------------------|
E|-------------------------------------------------------------------------|

e|-0h1-4-6-8-x-46864-6b-----4-6-864686468—6b-6-4-6-7b--4-6-6h7-6-6-4-------|
B|-----------x----------6-6------------------------------------------------|
G|-----------x-------------------------------------------------------------|
D|-------------------------------------------------------------------------|
A|-------------------------------------------------------------------------|
E|-------------------------------------------------------------------------|

e|-4h6-7b8—6/4-------------------------------------------------------------|
B|--------------- ---------------------------------------------------------|
G|---------------5h6-5h6-/-0-3-xxxxxxxxxxxxxxxxx---------------------------|
D|-------------------------------------------------------------------------|
A|-----------------------------------------------3-------------------------|
E|-----------------------------------------------1-------------------------|