Marshall Tucker Band - It Takes Time Text Guitar Tab

Learn the song with the online tablature player
Band: Marshall Tucker Band
Song: It Takes Time
Album: Tenth

Intro/Main Riff:

     D  Dsus              C
E----2----3----3------2--------------------------|
B----3----3----3------3---1---1----1---1---1-----|
G----2----2----2------2--------------------------|
D-------------------------2---2----2---2---2-----|
A-------------------------3---3----3---3---3-----|
E------------------------------------------------|

     D               Dsus        Bb5
E----2-----2-----2-----3----2--------------------|
B----3-----3-----3-----3----3--------------------|
G----2-----2-----2-----2----2-----3--------------|
D---------------------------------3--------------|
A---------------------------------1--------------|
E------------------------------------------------|

Intro/Main Riff Twice

  D
When you're feeling down and low

And you don't know which way your life should go

    G             Bb5             D         Bb5 C C
It takes time  it takes time  it takes time

D
And when you're feeling down and out

And you can't figure your own life out

    G             Bb5             D
It takes time  it takes time  it takes time

          D            C
It takes time to go..where you want to go

          D            C
It takes time to be..what you want to be

          D             C
It takes time to see..what you want to see

               Bb5   C                   D
Don't get in a hurry....'cause it takes time

 D
Well there's no use to feel sorry and blue

You can go and do anything you want to

        G             Bb5             D        Bb5 C C
But it takes time  it takes time  it takes time

D
And when you're feeling down and out

And you can't figure your own life out

    G             Bb5             D
It takes time  it takes time  it takes time

          D            C
It takes time to go..where you want to go

          D            C
It takes time to be..what you want to be

          D             C
It takes time to see..what you want to see

               Bb5   C            D
Don't get in a hurry....it takes time