Marta Sui Tubi - La Tua Argenteria Text Guitar Tab

Learn the song with the online tablature player
verso
"credi che così..."
------------------0-----------------0----|
-------0------0------------0----0--------|
-----------------------------------------|
-/5--3----/9----9----/5--3----7---7------|
-----------------------------------------|
-----------------------------------------|

ponte
"accordo il sole in mi..."
------------------------|
-----0---0----0---------|
-----0---0----0---------|
---5--------------------|
-6-----5----4---4-------|
------------------------|

ritornello
"veeeedi..."
----3-------------------------------------|
-0--3--0-0-0---------0--------------------|
-0--0--2-2-2--0------0--------------------|
-2--0--2-2-2--0----2----------------------|
-2-----0-0-0--3--4------------------------|
--------------1---------------------------|

dopo il secondo ritornello fa:
-----------------------------------------------|
-------0------0-------------------(arm)7-------|
----------------------------------------(arm)7-|
-/5--3----/9----9-----/5--3----7---------------|
-----------------------------------------------|
-----------------------------------------------|