Martin Grech - Blood River Text Guitar Tab

Learn the song with the online tablature player
Martin Grech - Blood River

SIMPLE VERSION for the campfire (not the real way Grech plays it)

Played using three simple chords:
E5
GMaj
A5

Main riff
e ----------------------|
B ----------------------|
G ----------------------|
D ----------------2-0---|
A --------------------2-|
E 0---0-3---3-0---------|

or

e ----------------------|
B ----------------------|
G ----------------------|
D 2---2-0---0-2---2-0---|
A 2---2-2---2-2-------2-|
E 0---0-3---3-0---------|

Chorus

e -------------|
B -------------|
G 222222222--2-|
D 222222222--2-| + Main riff
A 000000000--0-|
E -------------|