Martin Jondo - Rainbow Warrior Text Guitar Tab

Learn the song with the online tablature player
Intro

---5---5--------------------5---5-7-7----------10-|
-----5---8-8------------------5-------8-----8--10-|
---5-5-------7-4-------5----5-5---------7h9-------|
---------------------5----------------------------|
-----------------5h7------------------------------|
-5------------------------5-----------------------|

---5---5-----------5-5-----5------3----------------|
-----5---8-8-------5-5-------5-8--3----------------|
---5-5-------7-4---5-5-----5-5----4----------------|
-------------------7-7------------5----------------|
-------------------7-7------------5----------------|
-5---------------5-5-5---5--------3----------------|

Whole Song Chords:

Am   G