Martin Taylor - I Wish I Knew How It Would Feel To Be Free Text Guitar Tab

Learn song with the online tabulature player
Song Title: I Wish I Knew (How It Would Feel To Be Free)
Artist: Martin Taylor
Tuning: Standard
Transcribed by: ReChord

This is Martin Taylor's arrangement of this jazz classic.  It is arranged for solo
 Most symbols used in here should be ones you all already know except one obscure one, which
the "L" symbol, which just means that the note is tied to the one before hand...in other 
you just hold out that note across the bar.  I've seen the "L" symbol used in other
but it doesn't seem very common, so I figured I'd put this little disclaimer in here 
incase :P

E||--5--5-----4--|--L-----------------------|-----------------0--------|
B||--5--5-----5--|--L-----5-----7--7-----5--|--L--------2--L-----------|
G||--6--6-----4--|--L-----4-----5--5-----4--|--L--------1--L-----------|
D||--------------|-----4--------4--4--------|--------------------------|
A||--------------|-----------------------4--|--L--3--2--1--L-----1--1--|
E||--7--7-----0--|--L--------0--4-----------|--------------------------|

|--0-------------0-----0--|-------------------------------|
|--2----0-----2--------0--|-------------------------------|
|--2----------2--------1--|-------------------------------|
|-------------------------|----------2--------------------|
|--0-------0--2-----2-----|-----2h-4----4-----------------|
|----------------------0--|----------------3S-2-0--2S--7--|

-----7--------4-----------|-----------------0-------|--0-------------0-----0--|
-----7--------4--7-----5--|--L--------2--L--2-------|--2----0-----2--2-----0--|
-----6--------5--------4--|--L--------2--L--1-------|-------------2--2-----1--|
-----6--------------------|-------------------------|-------------------------|
-----------------------4--|--L--3-----2--L--1----1--|--0-------0--2-----------|
--0--------3--4-----------|-------------------------|-------------------------|

--------------0-------0-------|--7------------9--7-----4--|
-----0--------0h-2----0-------|--7------------7--7-----5--|
-----1--------2---------------|--6------------6--6-----4--|
------------------------------|--6------------------------|
-----------2-------2----------|---------------6--------4--|
--0----------------------(0)--|----------(0)--------------|

--L--------------------------|--2------------------------|
--L--------7-------5---------|--2-------2--2g3--2--0--0--|
--L-----4----------4---------|--3-------3--3g3-----------|
-----4-----4-------3---------|----------2--2g2-----------|
--L--------------------------|---------------------------|
--------------(0)--3----(3)--|--2-------2--2g2-----------|

-----0--0-----0-------------|-------7-----------------|
-----0--0-----0-------------|-------7--------7-----5--|
-----6--6-----6-------------|-------6--------5-----4--|
-----7--7-----7-------------|-------6--------4--------|
-------------------------7--|----------------------4--|
--7--------7-----7--7g9-----|--0-------0--4-----------|


-----------------0---------|--0-------------0-----0--|
--L--------2--L--2---------|--2----0-----2--2-----0--|
--L--------2--L--1---------|--2----------2--2-----1--|
---------------------------|-------------------------|
--L--3-----2--L--1---------|--0-------0--2-----------|
----------------------(0)--|----------------------0--|


--L------------------5--5-----4--|--L-----------------------|
--L-------0----------5--5-----5--|--L-----------7--7-----5--|
--L-------1h-2-------6--6-----4--|--L-----4-----5--5-----4--|
-----(0)-------------------------|-----4--------4--4--------|
---------------------------------|-----------------------4--|
--L------------(6)S--7--7-----0--|--L--------0--4--4--------|


-----------------------0--|--L--------------0-----0--|
--L-----------2--2-----2--|--L-----0-----2--------0--|
--L-----------1--1-----2--|--L-----2-----2--------1--|
--------------------------|--------------------------|
--L--3--2-----1--1-----0--|--L--0-----0--2-----2-----|
--------------------------|-----------------------0--|

----------------------------|-----------------7--------|
-----7br-------5------------|--------8--------7-----5--|
------------6-----x---------|--------7--------5-----4--|
---------------------5b-----|--------6--------4--------|
-------------------------7--|-----------------------4--|
----------------------------|--0--------0--4-----------|


-------------------------|-----------------0----------|
--L--4----3--L-----------|-----8--7--------0----------|
--L--3----2--L--/7----5--|--6--------------6----------|
----------------/6----4--|--5-------------------------|
--L--3----2--L-----------|----------------------------|
----------------/6-------|--5--------5--7-----(7)--0--|

----------------0----7g9----|--7---------------9--7--4--|
-----8--7-------0-----------|-------7----------7--------|
-----7----------6-----------|------------------6--------|
-----6----------------------|---------------------------|
----------------------------|---------------6-----------|
-----------(0)--------------|--0-------(0)--------------|


--L-------------------------|--------------------------|
-----------7-------/5-------|--------------------------|
--------4----------/4----4--|--3--3--4--4--5--5--6--6--|
-----4-------------/3-------|--------------------------|
----------------------------|--------------------------|
--------------(0)--/3----3--|--2--2--4--4--5--5--6--6--|


-----------------------------|-----7-------------4--------|
-----------------------------|-----9-------------4--7--5--|
--8--8--9--9--10--10--11-----|-----8-------------5-----4--|
-----------------------------|----------------------------|
--------------------------6--|--7----------------------4--|
--7--7--9--9--10--10--11-----|--------7--(0)--4-----------|


----------------0----0--|--L--------------0-----0--|--L---------5--5-----4--|
--L-------2--L--2----2--|--L-----0-----2--------0--|--L---------5--5-----5--|
--L-------2--L--1----2--|--L-----------2--------1--|--L---------6--6-----4--|
------------------------|--------------------------|------------------------|
--L--3----2--L--1----0--|--L--0-----0--2-----------|------------------------|
------------------------|-----------------------0--|--L---------7--7-----0--|


--L------------------------|-----------------0--------|
--L------------7--7-----5--|--L-----------2--------2--|
--L------------5--5-----4--|--L-----------1--------2--|
---------------4--4--------|--------------------------|
------------------------4--|--L--3--2--0--1--------0--|
--L-------(0)--4--4--------|--------------------------|


-----------------0-----0--|--L-------------5--5-----4--|
--L-----0-----2--------0--|--L-------------5--5-----5--|
--L-----2-----2--------1--|--L-------------6--6-----4--|
--------------------------|-----(0)--------------------|
--L--0-----0--2-----------|----------------------------|
-----------------------0--|--L-------x--x--7--7-----0--|


--L-------------------------|-----------------0-----0--|
--L-----------/7--7-----/5--|--L-----------2--------2--|
--L-----4-----/5--5-----/4--|--L-----------1--------2--|
-----4--------/4--4---------|--------------------------|
------------------------/4--|--L--3--2--0--1--------0--|
--L--------0--/4--4---------|--------------------------|

--L--------------0-----0--|--L------------5--5-----4--|
--L-----0-----2--------0--|--L--0---------5--5-----5--|
--L-----------2--------1--|--L--1---------6--6-----4--|
--------------------------|---------------------------|
--L--0-----0--2-----------|---------------------------|
-----------------------0--|--L-----/7~----7--7-----0--|

--L-------------------------|-----------------0--------|
--L-----------/7--7-----/5--|--L--------2--L-----------|
--L-----4-----/5--5-----/4--|--L--------1--L--------1--|
-----4--------/4--4---------|--------------------------|
------------------------/4--|--L--3--2--1--L-----1-----|
--L--------0--/4--4---------|--------------------------|

--0-------------0----0--|------------------------|-------0------------||
--2----0-----2-------0--|--------------------8b--|--L-----------------||
--2----------2-------1--|--------------------7b--|--L-----------------||
------------------------|--------------------6b--|--L-----------------||
--0-------0--2----------|------------------------|--------------------||
---------------------0--|--2br--------0----------|--------------------||

If there are any corrections or comments or anything like that, then feel free to PM me
UG.