Marty Friedman - Luna Text Guitar Tab

Learn song with the online tabulature player
Luna
--------------
Marty Friedman

h-Hammer on
p-Pull off
/ or \-Slide
tr-Trill
b-Bend
pb-Pre-Bend

Clean

e----14--11----------11-14-11h14p11-----------------------12------------------|
B-----------14-12-14-----------------12-15-15-14-12-14-15----15-14-15---------|
G-11------------------------------------------------------------------14------|
D-----------------------------------------------------------------------------|
A-----------------------------------------------------------------------------|
E-----------------------------------------------------------------------------|

e-12b-------12--------14--14b-------------------------------------------------|
B-----14-15----14b-12---------------------------------------------------------|
G-----------------------------------------------------------------------------|
D-----------------------------------------------------------------------------|
A-----------------------------------------------------------------------------|
E-----------------------------------------------------------------------------|

e----14--11----------11-14-11h14p11----------14b-18pb-16-16b----17b-14-15pb-12|
B-----------14-12-14-----------------12----------------------17---------------|
G-11--------------------------------------------------------------------------|
D-----------------------------------------------------------------------------|
A-----------------------------------------------------------------------------|
E-----------------------------------------------------------------------------|

e-14----17b-17b-17b-17b-17b---------------------------------------------------|
B----12-----------------------------------------------------------------------|
G-----------------------------------------------------------------------------|
D-----------------------------------------------------------------------------|
A-----------------------------------------------------------------------------|
E-----------------------------------------------------------------------------|

Turn on some kind of Distortion, OD, High gain setting.

e-----------------------------------------------------------------------------|
B-----------------------------------------------------------------------------|
G-/11-11-11-11---11/14\12\11\9---12-12-12\11\9--7h9\6--4h6\2------------------|
D--------------9---------------9-----------------------9h11\7-----------------|
A-----------------------------------------------------------------------------|
E-----------------------------------------------------------------------------|

e--------------------------14--12----12---------------------------------------|
B-------7-10-10-9-10-10/13--------15----12--15--------------------------------|
G-----7----------------------------------------12-12-11tr12----14-------------|
D-9-7-------------------------------------------------------14----------------|
A-----------------------------------------------------------------------------|
E-----------------------------------------------------------------------------|

e-----------------------------------------------------------------------------|
B-----------------------------------------------------------------------------|
G--------12-11--9-------------------------------------------------------------|
D-12---------------12-----11----14--16--13------------------------------------|
A----12-----------------------------------------------------------------------|
E-----------------------------------------------------------------------------|