Marty Robbins - Ghost Riders In The Sky Text Guitar Tab

Learn the song with the online tablature player
I couldn't find any tabs that actually sounded right, so here they are

e---------------------------------------------------------|
b---------------------------------------------------------|
g---------------------------------------------------------|
d----------------------------------------------0-2-22---2-|
a------0-00-2-3-33-0---------------0-00-2-3-33--------3---|
e----0---------------3-33-0-3----0------------------------|

e----------------------------------------------------------|
b----------------------------------------------------------|
g------2-2-22----------------------------------------------|
d--0-2--------22-22-2-0------------------------------------|
a-----------------------3-0---------3-33----2/3-00---0-----|
e--------------------------0-1-11-1----------------3-------|

Written by Johnny Reaver