Marty Simpson - Walking Out The Door Text Guitar Tab

Learn the song with the online tablature player
Im pretty sure this is it, it sounds right. Anyway hope you like it :)

E|-7------10------3------0----------------------------|
B|-7------10------3------0----------------------------|
G|-7--x4--10--x4--3--x4--0--x4---Repeat 2-------------|
D|-9------12------5------2----------------------------|
A|-9------12------5------2----------------------------|
E|-7------10------3------0----------------------------|

E|-7------10------3------0----------------------------|
B|-7------10------3------0----------------------------|
G|-7--x2--10--x2--3--x2--0--x2------------------------|
D|-9------12------5------2----------------------------|
A|-9------12------5------2----------------------------|
E|-7------10------3------0----------------------------|