Marvelous 3 - Cold As Hell Text Guitar Tab

Learn the song with the online tablature player
   ------999-9999---77777--9999--------------------------------------------------
   ------777-9999---77777--9999--------------------------------------------------
   --------------------------|---------------------------------------------------
   --------------------------|---------------------------------------------------
   --------------------------|---------------------------------------------------
   --7--7--9-9-11-11--9-9----|-----77777777--99----------------------------------
   --7--7--9-9-11-11--9-9----|-----77777777--99-1111--1212-----------------------
   --5--5--7-7-9--9---7-7----|-----55555555--77-9-9---1010-----------------------
   PRE CHORUS "SHE SAID..... "i have been for the.... palm mute

   -------------------------------------------------|----------------------------
   -------------------------------------------------|----------------------------
   -----99999999------------------------------------|----------------------------
   -----99999999--999999999-----77777777-999999999--|----------------------------
   -----77777777--9999999999----77777777-999999999--|----------------------------
   ---------------7777777777----55555555-777777777--|-11/9/7/5/2-----------------
   Chorus I guess i should wait awhile slide at end

   -------99999-999999--77777777--9999999----------------------------------------
   -------77777-999999--77777777--9999999----------------------------------------
   --------------------------|---------------------------------------------------
   --------------------------|---------------------------------------------------
   --------------------------|---------------------------------------------------
   -----7-7--9--9--11-11--9-9|--777777777777-9999999--11-11--13-13---------------
   -----7-7--9--9--11-11--9-9|--777777777777-99999999-11-11--13-13---------------
   -----5-5--7--7--9--9---7-7|--555555555555-77777777-9--9---11-11---------------
   Pre chorus palm muted

   ------9999999--99999999--777777777----999999999-------------------------------
   ------7777777--99999999--777777777----999999999-------------------------------
   ---7/9-^7/9/77/9-7/---7/9-^/2-7/9-^7/9----------------------------------------

   nikki six solo! all based on those 2 chords

   ----------------------------|-------------------------------------------------
   ----------------------------|-------------------------------------------------
   ----------------------------|-------------------------------------------------
   ----7--7--9--9---11-11--9-9-|---7777777777--99-11-11-13-13--------------------
   ----7--7--9--9---11-11--9-9-|---7777777777--99-11-11-13-13--------------------
   ----5--5--7--7---9--9---7-7-|---5555555555--77-9--9--11-11--------------------
   she said i was cold as hell! palm muted

   -----999999-9999999-77777777-99999999-----------------------------------------
   -----777777-9999999-77777777-99999999-----------------------------------------