Marvelous 3 - Your So Yesterday Text Guitar Tab

Learn the song with the online tablature player
   -------5555--222---333--555---------------------------------------------------
   -------3333--222---333--555---------------------------------------------------
   ------------------------------------------------|-----------------------------
   ------------------------------------------------|-----------------------------
   ----------555---9999----------------------------|-----------------------------
   ----------555---9999---333333----5555555--------|---3-------------------------
   ----------333---7777---333333----5555555--------|---3-------------------------
   -----------------------111111----3333333--------|---1-------------------------
   pre chorus "As i sit here and stare... "and now ur all...

   ------5555---999999-----------------------------------------------------------
   ------5555---999999--3333333333---555555555-----------------------------------
   ------3555---777777--3333333333---5555555555----------------------------------
   ----7--9^10-9^10-7-------7--9^10-9^10-7-----7-9^10-9^-7/9/10//12//15----------

   -------99999-101010-12-12-12--------------------------------------------------

   -------77777-88888-10--12-12--------------------------------------------------

   This i tabbed from a bootleg i got, its grea thogu, very easy song!
   "Come and take a......" -verse, those are the 4 verse chords
   chorus "anymore anymoreeeee G D Cadd9