Marvin Berry - Earth Angle Text Guitar Tab

Learn the song with the online tablature player
Earth Angle by Marvin Berry.

Hey guys, i was just sitting around watching BAck To the
Future and thought i might tabs this for you.

Intro
e-3--3-----------0--------0-----0---2----2--------------|
b-3----3----------0-------1-----1---3------3------------|
g-0------0---0-----0------0-----0---2--------2----------| x2
d-0----------2------------2---------0----------0--------|
a-2----------2------------3-----------------------------|
e-3----------0------------------------------------------|

Vearse
e-3-----3------------0---0-0--2-2----------|
b-3-----3------------1---1-1--3-3----------|
g-0-----0--0----0----0---0-0--2-2----------|
d-0-----0--2----2----2---2-2--0-0----------|
a-2-----2--2----2----3---3-3---------------|
e-3-----3--0----0--------------------------|

Tabed by gsgf451.