Masaaki Kishibe - Convertible Text Guitar Tab

Learn the song with the online tablature player
Convertible
Masaaki Kishibe

     H        E  E  E  E     E  S S S S S S E  S S S S S S
D||-----------------------|--0-------------------0---------|
A||--------------------3--|-------3-------3------------3---|
G||-----------------0-----|-------------0----------------0-|
D||--------------2--------|-----2-----2--------2-----2-----|
G||-----------------------|--------------------------------|
C||-----------------------|--0------x-------0------x-------|

  E  S S S S S S E  S S S S S S    E  S S S S S S E  S S S S S S
-------0--------------0---------|--0-------------------0---------|
-------------3--------------3---|-------3-------3------------3---|
---------------0--------------0-|-------------0----------------0-|
-----2-----2--------2-----2-----|-----2-----2--------2-----2-----|
--------------------------------|--2------x-------2------x-------|
--0------x-------0------x-------|--------------------------------|

  E  S S S S S S E  S S S S S S    E  S S S S S S E  S S S S S S
-------0--------------0---------|--0-------------------0---------|
-------------3--------------3---|-------3-------3------------3---|
---------------0--------------0-|-------------0----------------0-|
-----2-----2--------2-----2-----|-----3-----3--------3-----3-----|
--2------x-------2------x-------|--------------------------------|
--------------------------------|--2------x-------2------x-------|

  E  S S S S S S E  S S S S S S    E  S S S S S S E  S S S S S S
-------0--------------0---------|--0-------------------0---------|
-------------3--------------3---|-------3-------3------------3---|
---------------0--------------0-|-------------4----------------4-|
-----3-----3--------3-----3-----|-----3-----3--------3-----3-----|
--------------------------------|--0------x-------0------x-------|
--2------x-------2------x-------|--------------------------------|

                                                                 v
  E  S S S S S S E  E  S  S S S      S  S S S S S S S E  S S S S E
-------0------------------------||-------------------------------2--|
-------------3----------------0-||---0h-2------------------2-----2--|
---------------4------------0---||*---------0-------0------------0--|
-----3-----3-----------0h-2-----||*---------------2------------2-2--|
--0------x-------0--------------||--------0-----0--------0----------|
--------------------------------||---0--------x-------0------x------|

  E  S S S S S S E  S S S S S S    E  S S S S S S E  S S S S S S
----------------------0---------|--0----2-------2------0---------|
-------2-------2------------2---|-------------0------0-------3---|
-------------0----------------0-|-----0-----0--------------0---0-|
-----2-----2--------2-----2-----|--------------------------------|
--------------------------------|--------------------------------|
--0------x-------0------x-------|--5------x-------5------x-------|

                                                             v
  E  S S S S S S E  S S S S S S    E  S S S S S S E  S S S S E
-------0--------------0---------|----------------------0-----2--|
-------------3--------------0---|--3------------3------------3--|
-----0-----0---0----0-----0---0-|-------0-----0--------------0--|
--------------------------------|-----3-----3--------3-----3-3--|
--------------------------------|-------------------------------|
--5------x-------5------x-------|--2------x-------2------x------|

  E  S S S S S S E  S S S S S S    E  S S S S S S E  S S S S S S
---------------2------0---------|--0-------------------0---------|
-------3--------------------3---|-------3-------3------------3---|
-------------0----------------0-|-------------4----------------4-|
-----3-----3--------3-----3-----|-----3-----3--------3-----3-----|
--------------------------------|--0------x-------0------x-------|
--2------x-------2------x-------|--------------------------------|

                                                               v
  E  S S S S S S E  E  S  S S S    S  S S S S S S S E  S S S S E
-------0------------------------|------------------------------2--|
-------------3----------------0-|--0h-2------------------2-----2--|
---------------4------------0---|---------0-------0------------0--|
-----3-----3-----------0h-2-----|---------------2------------2-2--|
--0------x-------0--------------|-------0-----0--------0----------|
--------------------------------|--0--------x-------0------x------|

  E  S S S S S S E  S S S S S S    E  S S S S S S E  S S S S S S
----------------------0---------|--0----2-------2------0---------|
-------2-------2------------2---|-------------0------0-------3---|
-------------0----------------0-|-----0-----0--------------0---0-|
-----2-----2--------2-----2-----|--------------------------------|
--------------------------------|--------------------------------|
--0------x-------0------x-------|--5------x-------5------x-------|

                                                             v
  E  S S S S S S E  S S S S S S    E  S S S S S S E  S S S S E
-------0--------------0---------|----------------------0-----2--|
-------------3--------------0---|--3------------3------------3--|
-----0-----0---0----0-----0---0-|-------0-----0--------------0--|
--------------------------------|-----3-----3--------3-----3-3--|
--------------------------------|-------------------------------|
--5------x-------5------x-------|--2------x-------2------x------|

  E  S S S S S S E  S S S S S S    E  S S S S S S E  S S S S S S
---------------2------0---------|--0-------------------0---------|
-------3--------------------3---|-------3-------3------------3---|
-------------0----------------0-|-------------4----------------4-|
-----3-----3--------3-----3-----|-----3-----3--------3-----3-----|
--------------------------------|--0------x-------0------x-------|
--2------x-------2------x-------|--------------------------------|

  E  S S S S S S E  S S S S S S    E  S S S S S S E  S S S S S S
-------0----------------------0-|--5------------5------5-------5-|
-------------3----------0---3---|-------3-----3--------------2---|
---------------4------0---4-----|-----0-----0--------0-----0-----|
-----3-----3--------3-----------|--------------------------------|
--0------x-------0--------------|--------------------------------|
--------------------------------|--0------x-------0------x-------|

  E  S S S S S S E  S S S S S S    E  S S S S S S E  S S S S S S
-------5-------5------3-----2---|--2----3-----2--------0---------|
-------------2----------------0-|---------------0------------3---|
-----0-----0--------0-----0-----|-----0-----0--------0-----0---0-|
--------------------------------|--------------------------------|
--------------------------------|--------------------------------|
--0------x-------0------x-------|--5------x-------5------x-------|

                                                             v
  E  S S S S S S E  S S S S S S    E  S S S S S S E  S S S S E
-------0--------------0---------|--0----2-------3------------3--|
-------------3--------------0---|-------------0--------0-----0--|
-----0-----0---0----0-----0---0-|-----------0--------------0-0--|
--------------------------------|-----3--------------3-------3--|
--------------------------------|-------------------------------|
--5------x-------5------x-------|--2------x-------2------x------|

  E  S S S S S S E  S S S S S S    E  S S S S S S E  S S S S S S
---------------3------2---------|--2----0--------------0---------|
-------0-----0--------------3---|-------------3--------------3---|
-----------0--------------0---0-|---------------4--------------4-|
-----3--------------3-----------|-----3-----3--------3-----3-----|
--------------------------------|--0------x-------0------x-------|
--2------x-------2------x-------|--------------------------------|

  E  S S S S S S E  S S S S S S    E  S S S S S S E  S S S S S S
-------0----------------------0-|--5------------5------5-------5-|
-------------3----------0---3---|-------3-----3--------------2---|
---------------4------0---4-----|-----0-----0--------0-----0-----|
-----3-----3--------3-----------|--------------------------------|
--0------x-------0--------------|--------------------------------|
--------------------------------|--0------x-------0------x-------|

  E  S S S S S S E  S S S S S S    E  S S S S S S E  S S S S S S
-------5-------5------3-----2---|--2----3-----2--------0---------|
-------------2----------------0-|---------------0------------3---|
-----0-----0--------0-----0-----|-----0-----0--------0-----0---0-|
--------------------------------|--------------------------------|
--------------------------------|--------------------------------|
--0------x-------0------x-------|--5------x-------5------x-------|

                                                             v
  E  S S S S S S E  S S S S S S    E  S S S S S S E  S S S S E
-------0--------------0---------|--0----2-------3------------3--|
-------------3--------------0---|-------------0--------0-----0--|
-----0-----0---0----0-----0---0-|-----------0--------------0-0--|
--------------------------------|-----3--------------3-------3--|
--------------------------------|-------------------------------|
--5------x-------5------x-------|--2------x-------2------x------|

  E  S S S S S S E  S S S S S S    E  S S S S S S E  S S S S S S
---------------3------2---------|--2----0--------------0---------|
-------0-----0--------------3---|-------------3--------------3---|
-----------0--------------0---0-|---------------4--------------4-|
-----3--------------3-----------|-----3-----3--------3-----3-----|
--------------------------------|--0------x-------0------x-------|
--2------x-------2------x-------|--------------------------------|

  E  S S S S S S E  E  S  S S S      E  S S S S S S E  S S S S S S
-------0-------------------------||-------0--------------0---------|
-------------3----------------0--||-------------3--------------3---|
---------------4------------0---*||---------------4--------------4-|
-----3-----3-----------0h-2-----*||-----3-----3--------3-----3-----|
--0------x-------0---------------||--0------x-------0------x-------|
---------------------------------||--------------------------------|

  E  S S S S S S E  S S S S S S    E  S S S S S S E  S S S S S S
--0-------------------0---------|-------0--------------0---------|
-------3-------3------------3---|-------------3--------------3---|
-------------0----------------0-|---------------0--------------0-|
-----2-----2--------2-----2-----|-----2-----2--------2-----2-----|
--------------------------------|--------------------------------|
--0------x-------0------x-------|--0------x-------0------x-------|

  E  S S S S S S E  S S S S S S    E  S S S S S S E  S S S S S S
--0-------------------0---------|-------0--------------0---------|
-------3-------3------------3---|-------------3--------------3---|
-------------0----------------0-|---------------0--------------0-|
-----2-----2--------2-----2-----|-----2-----2--------2-----2-----|
--2------x-------2------x-------|--2------x-------2------x-------|
--------------------------------|--------------------------------|

  E  S S S S S S E  S S S S S S    E  S S S S S S E  S S S S S S
--0-------------------0---------|-------0--------------0---------|
-------3-------3------------3---|-------------3--------------3---|
-------------0----------------0-|---------------0--------------0-|
-----3-----3--------3-----3-----|-----3-----3--------3-----3-----|
--------------------------------|--------------------------------|
--2------x-------2------x-------|--2------x-------2------x-------|

  E  S S S S S S E  S S S S S S    E  S S S S S S E  S S S S S S
--0-------------------0---------|-------0--------------0---------|
-------3-------3------------3---|-------------3--------------3---|
-------------4----------------4-|---------------4--------------4-|
-----3-----3--------3-----3-----|-----3-----3--------3-----3-----|
--0------x-------0------x-------|--0------x-------0------x-------|
--------------------------------|--------------------------------|

  E  S S S S S S E  S S S S S S      E  S S S S S S E  S S S S S S 10x
--0-------------------0---------||--------0--------------0----------||
-------3-------3------------3---||--------------3--------------3----||
-------------0----------------0-||*---------------0--------------0-*||
-----2-----2--------2-----2-----||*-----2-----2--------2-----2-----*||
--------------------------------||----------------------------------||
--0------x-------0------x-------||---0------x-------0------x--------||

  E  S S S S S S H
-------0------------------||
-------------3------------||
---------------0----------||
-----2-----2--------------||
--------------------------||
--0------x-------0--------||

Duration Legend

W - whole
H - half
Q - quarter
E - 8th
S - 16th
T - 32nd
X - 64th
. - note dotted
|-n-|  - n-tuplets

L - tied note
x - dead note
g - grace note
(n) - ghost note
> - accentuded note
NH - natural harmonic
AH - artificial harmonic
TH - tapped harmonic
SH - semi harmonic
PH - pitch harmonic
h - hammer on
p - pull off
b - bend
br - bendRelease
pb - preBend
pbr - preBendRelease
brb - bendReleaseBend
\n/ - tremolo bar dip
\n - tremolo bar dive
-/n - tremolo bar Release up
/n\ - tremolo bar inverted dip
/n - tremolo bar return
-\n - tremolo bar Release down
S - shift slide
s - legato slide
/ -  slide into from below or out of upwards
\ -  slide into from above or out of downwards
~ - vibrato
W - wide vibrato
tr - trill
TP - tremolo picking
T - tapping
S - slap
P - pop
< - fade in
^ - brush up
v - brush down