Mayhem - Freezing Moon Text Guitar Tab

Learn the song with the online tablature player
                             Freezing Moon - Mayhem

Intro
(0:00-0:59)
G|---------------------------------------|
D|---------------------------------------|
A|---------------------------------------|
E|--0-----0-----0-------5-6-6-5-3-1-0----|

     A
(0:59-1:37)
G|-------------------------------------------------------------------------|
D|-------------------------------------------------------------------------|
A|-----------7---7-7-----------6---6-6----------7---7-7----------8---8-8---|
E|--0---0-0-----------0---0-0-----------0---0-0----------0---0-0-----------|

                           B
G|--R-E-S-T--|        G|-------------|
D|--R-E-S-T--|        D|-------------|
A|--R-E-S-T--|        A|------6---7--|
E|--R-E-S-T--|        E|--0----------|
                      Play With Drums 4x

     C
(1:44-1:57)
G|-------------------------------------------------------------------------|
D|-------------------------------------------------------------------------|
A|---------------------------------7-7-7-7-7-7-7-7-------------------------|
E|-0-0-0-0-0-0-0-0-6-6-6-6-6-6-6-6-----------------6-6-6-6-6-6-6-6---------|

     D
(1:57-2:11)
G|-------------------------------------------------------------------|
D|-------------------------------------------------------------------|
A|--------------------------------------------------7-7-7-7----------|
E|--0-0-0-0-0-0-0-0-0-0-0-0-0-0-0-0-6-6-6-6-6-6-6-6---------6-6-6-6--|

     C
(2:11-2:24)

     D
(2:24-2:37)

     C
(2:37-2:50)

     D
(2:51-2:58)
G|-----|
D|-----|
A|-----|
E|--0--|

     E
(2:58-5:50) First time alone with distortion
G|-----------------------------|
D|-----------------------------|
A|-----------------------------|
E|--0-----1--0----0----0----1--|

(5:50-5:57)
G|--R-E-S-T--|
D|--R-E-S-T--|
A|--R-E-S-T--|
E|--R-E-S-T--|

Riff C Until The End Of The song. Keep in mind, the lead guitar plays a little variation
it, but the bass keeps playing Riff C with the Rhythm Guitar.

| /  slide up
| \  slide down
| h  hammer-on
| p  pull-off
| ~  vibrato
| +  harmonic
| x  Mute note