The Menzingers - Home Outgrown Chords

 
7 fr
         
         
         
         
         
1
3
4
2
1
1
         
         
         
         
         
X
2
1
X
3
         
         
         
         
         
X
1
4
4
4
X
         
         
         
         
         
X
1
3
3
3
1
4 fr
         
         
         
         
         
4
3
1
1
1
X
4 fr
         
         
         
         
         
3
2
1
1
1
4

9 fr
         
         
         
         
         
X
X
1
3
4
3
11 fr
         
         
         
         
         
X
4
3
1
2
1

F

variations
         
         
         
         
         
1
3
4
2
1
1
         
         
         
         
         
X
X
3
2
1
1
6 fr
         
         
         
         
         
X
4
3
1
2
1
4 fr
         
         
         
         
         
X
X
1
2
4
3
9 fr
         
         
         
         
         
X
1
3
3
3
1
11 fr
         
         
         
         
         
4
3
1
1
1
X

11 fr
         
         
         
         
         
3
2
1
1
1
4

Gm

variations
4 fr
         
         
         
         
         
1
3
4
1
1
1
6 fr
         
         
         
         
         
X
X
1
3
4
2
4 fr
         
         
         
         
         
X
X
3
1
1
1
         
         
         
         
         
4
2
1
X
X
X
8 fr
         
         
         
         
         
X
4
3
1
2
X
11 fr
         
         
         
         
         
X
1
3
4
2
1
         
         
         
         
         
2
3
1
4 fr
         
         
         
         
         
X
4
3
1
2
1
7 fr
         
         
         
         
         
X
1
4
4
4
X
2 fr
         
         
         
         
         
X
X
1
2
4
3
4 fr
         
         
         
         
         
4
3
1
2
1
7 fr
         
         
         
         
         
X
1
3
3
3
1

9 fr
         
         
         
         
         
4
3
1
1
1
X
9 fr
         
         
         
         
         
3
2
1
1
1
4
12 fr
         
         
         
         
         
1
3
4
2
1
1
4 fr
         
         
         
         
         
X
No chord
    
Standard guitar tuning:
E
A
D
G
B
E
No capo

Intro

BCondescender, Condescender, BChemical Fsplendour, GmI surrEender Ba promise Fto myEself.

Intro lead

B F Gm E

B F E

Verse

BI know a snake, I know a Fcharmer, I know a Gmselfish little Eboy, But I Bwish that I Fknew my Efriend, BA neighbour is a Fstranger, and comGmpassion is an Eoption, When your Bfrigid Fhearts settle Ein.

Chorus

BCondeFscender Gmlast forEever Bcome call Foff your Edogs, BChemical Fsplendour, GmI surrEender a Bpromise Fto myEself, the old enemy.

Interlude

Gm B x2

Bridge

I’m not Bgoing home, I’m not Gmgoing home, Where Bis my home? Where Gmis my home? I’m not Bgoing home.

Chorus

BCondeFscender Gmlast forEever Bcome call Foff your Edogs, BChemical Fsplendour, GmI surrEender a Bpromise Fto myEself, the old eneBmy. My Gmheroes I have forBgotten them, My Gmheroes maybe they Bnever were, My Gmheroes I have forBgotten them, My Gmheroes maybe they Bnever were, I’m not Bgoing home.

Intro

just play this a bunch
e|------------|
B|------------|
G|-4-4-4-4----|
D|-x-x-x-x----|
A|-2-2-2-2----|
E|------------|

Intro lead

   B       F         Gm     E          B       F         E
e|-8---8---10---8---|-8---8---10---8---|-8---8---10---8---|-8---8---10---8--|
B|---8---8----8---8-|---8---8----8---8-|---8---8----8---8-|---8---8----8---8|
G|------------------|------------------|------------------|-----------------|
D|------------------|------------------|------------------|-----------------|
A|------------------|------------------|------------------|-----------------|
E|------------------|------------------|------------------|-----------------|

Interlude

  Gm                                B
e|---------------------------------|---------7-6-----------7-6---4-|
B|---------------------------------|----4--------7-----4-------7---|
G|-9-9-9-9-8-8-8-8-9-9-9-9-8-8-8-8-|-4-----4---------4---4---------|
D|-x-x-x-x-x-x-x-x-x-x-x-x-x-x-x-x-|-------------------------------|
A|-7-7-7-7-6-6-6-6-7-7-7-7-6-6-6-6-|-------------------------------|
E|---------------------------------|-------------------------------|
2ND INTERLUDE:

Gm B

e|---------------------------------|----------------------------------| B|---------------------------------|----------------------------------| G|-9-9-9-9-8-8-8-8-9-9-9-9-8-8-8-8-|-11111111111111111111111111111111-| D|-x-x-x-x-x-x-x-x-x-x-x-x-x-x-x-x-|-x-x-x-x-x-x-x-x-x-x-x-x-x-x-x-x--| A|-7-7-7-7-6-6-6-6-7-7-7-7-6-6-6-6-|-9-9-9-9-9-9-9-9-9-9-9-9-9-9-9-9--| E|---------------------------------|----------------------------------|
   play 3x           4th time:     End
e|---------7-6---|----------------|----|
B|----4--------7-|----4---4-------|----|
G|-4-----4-------|--4---4---6-4-6-|-4~-|
D|---------------|----------------|----|
A|---------------|----------------|----|
E|---------------|----------------|----|

All Content on this page is the property of the copyright owner of the original composition.