Metallica - One Text Bass Tab

Learn the song with the online tablature player
g:-----------4------------------4--------------2 0---I
d:-------------------------------------------------2-I
a:-2-2-2-2-2---2-3-2----------2---2-2h3-2-0--0-------I
e:-------------------3--3-0-2------------------------I

g:--------------------------------------7---------------I
d:--------------------------------0-7-0---------5-------I
a:--------------------4---5---0-7--------/7---------0---I
e:-3--3-0-2-3--0--0-2---3---3--------------8\--3--3---3-I

g:----------------------7---------------------------I
d:--3-3-----2-2---0-7-0--------5-----3-3------------I
a:---------2-2-2---------7-------0--------------2h3-I
e:-1-1-1-0----------------8\--3-3-3-1-1-1--0--0-----I

g:---4----------------4--------------------------------2 0---I
d:---------------------------------------------------------2-I
a:-2---3-2----------2---3-2-----0-2h5--2--2-2h3-2--0--O------I
e:---------3--3-0-2---------3-3------------------------------I

g:---------------------4-----------------------------I
d:---------------------------------------------------I
a:--------------2-2--2---2-2h3-2----------2--2-2h3-2-I
e:-3--3-0-2-3--0-2---------------3--3-0-2------------I

g:----------------------------2 0----------------------I
d:--------------------------------2--------------------I
a:------0-2h5-2--2-2h3-2--0-0--------------------------I
e:-3--3-----------------------------3--3-0-2-3--0--2-0-I

g:--------------------------------------7-------------I
d:-----------------------------5--6--7--------5-------I
a----0-2-0-----2--0--2-4-2-0--3--4--5--5--------------I
e:-3-------3-2----------------------------8\-3--3-5-3-I

g:-----------------------7-------------------I
d:--3-3------2-2---0-7-0-------5--------3-3--I
a:----------2-2-2---------7--------0---------I
e:-1-1-1--0----------------8\-3--3--3--1-1-1-I

g:---------------7------------------------------------------I
d:---------0-7-0-------5--------3-3------2-2----------------I
a:-----2-3--------7-------0-------------2-2-2---0-2-0-----2-I
e:-0-0-------------8\-3--3--3--1-1-1--0-------3-------3-2---I

g:------------------------------------------------------------I
d:--------------------------------0---0-----------------------I
a:-0--2-4-2-0-2-4---0-2-0-----2--0-0-0--------5-----2-2---2---I
e:----------------3-------3-2-----------3-3-3---3-0-----0---0-I

g:-----------------------------------------------I
d:------------0-0--------------------------------I
a:-3-3-3---0-0-0-0------0----2-2-2-0--3-3-3-3-3--I
e:----1--0---------3-3-3-3-0----0------------1-0-I

g:-----2------------------------------------------2-------I
d:---0---0--------------------------------------0---0-----I
a:-0-------0----------5-----2-2-2---3-3-3-3---0-------0---I
e:-----------0--3-3-3---3-0----0-0-------1-0------------0-I

g:------------------------------------------------------------------I
d:----------------------------------------7-----0-0-0-7-------------I
a:-------------2-2-2-0--3-3-3-3-3/--7-7-7---7-0---------5\--2---2-0-I
e:-3-3-3-5-3-0----0------------1------------------------------0-----I

g:------------------------------------------------------------------I
d:-----------------7---0-0-0-7--------------------------------------I
a:-3-3-3-3/--7-7-7---0---------5\--2-2-0-2-0--3-3-3-3---3----7--(7)-I
e:------1---------------------------------------------1---0--0--(0)-I

      X 6 times      X 5 times
g:----------------------------I
d:----------------------------I
a:-------7--------7-----------I
e:-0000000--0000000--00000001-I

g:-------------------------------------I
d:-------------------------------------I
a:-------7--------7--------7-----------I
e:-0000000--0000000--0000000--00000001-I

g:-------------------------------------I
d:-------------------------------------I
a:-------7--------7--------7-----------I
e:-0000000--0000000--0000000--00000001-I

g:-------------------------------------I
d:-------------------------------------I
a:-------7--------7/8------5-------5/8-I
e:-000000--000000----000000--000000----I

g:--------------------------------------I
d:--------------------------------------I
a:-------7--------7/8------5--------2---I
e:-000000--000000----000000--000000---1-I

               IX 4 timesI
g:------------------------------------I
d:------------------------------------I
a:--------2--------2----3-7777777-777-I
e:-000000---000-000--000--0000000-000-I

                           IX 4 timesI
g:------------------------------------I
d:------------------------------------I
a:-7777*7777*--------2---------2----3-I
e:-0000*0000*-000000---000--000--000--I

g:--------------------------------------I
d:--------------------------------------I
a:-7777777*-777-7777*-777777--------7-7-I
e:-0000000*-000-0000*-000000--0000000-0-I

G--------------------------------------------I
d:-------------------------------------------I
a:-------7-7-----------------------------5-5-I
e:-0000000-0--00000001--33333333--333333-----I

g:------------------------------------------I
d:------------------------------------------I
a:--------5-5-------------------------------I
e:-333333-----11111111--00-3-00-3-00-3-00-3-I

g:----------------------------------I
d:----------------------------------I
a:----------------------------5-5-5-I
e:-11111111-11111111-3333333*-------I

                             IX 4 timesI
g:---------------------------------------I
d:---------------------------------------I
a:-555444333222-------2----------2-----3-I
e:--------------000000--000--000---000---I

g:----------------------------------------I
d:-2222222*-------------------------------I
a:----------555-555444333222--------2-----I
e:---------------------------000000---000-I

  IX 13 timesI
g:-----------------------------------------------I
d:-----------------------------------------------I
a:-----2-----3-----------------------------2-----I
e:-000---000---00-3-00-3-00-3-00-3--000000---000-I

g:--------------------------------------------I
d:--------------------------------------------I
a:-----2-----3----------------------------7-7-I
e:-000---000---00-3-00-3-00-3-00-3--0000000-0-I

g:---------------------------------------I
d:---------------------------------------I
a:---------------------------------2-----I
e:-111-111-333-333-333-333--000000---000-I

g:--------------------------------------------I
d:--------------------------------------------I
a:-----2-----3--7777777*-19-19-19-19-19-19-19-I
e:-000---000----0000000*-00-00-00-00-00-00-00-I