Metallica - Wherever I May Roam Text Bass Tab

Learn the song with the online tablature player
intro
sitar)
G--------------|----------|
D--4:----------|----------|
A--4:----------|----------|
E--------------|----------|

G---------------------------|-------------|
D---------------------------|-------------|
A---------------------------|---7---------|
E-----------------/12------|---0---------|

G------------|----------------------------|
D------------|----------------------------|
A------------|----------------------------|
E------------|-----(0)--------------------|

G----------------------------|-------------------|
D----------------------------|-------------------|
A----------7-----------------|-------------------|
E----------0-----------------|--------0----------|

G----------------|----------------|-----------------------|
D----------------|----------------|--2:-------------------|
A----------------|----------------|--4:-------------------|
E---0------------|----0-----------|------------(0)--------|

G---------------------|
D---------------------|
A---------------------|
E------5--6--7--8-----|

  bass figure 1
G-------------------------------|----------------------------|
D-------------------------------|----------------------------|
A-------7-----------------------|----------------------------|
E-------0-0--0--0--0--0--0--0---|--0--0--0--0--0--0--1--1----|

G-------------------------|--------------------------|
D-------------------------|--------------------------|
A-------------------------|--------------------------|
E-0--0--0--0--0--0--0--0--|--5--5--6--6--7--7--8--8--|

G--------------------------|--------------------------|
D--------------------------|--------------------------|
A--7-----------------------|--------------------------|
E--0--0--0--0--0--0--0--0--|--0--0--0--0--3--5--1--1--|

                                         end bass fig 1
G--------------------------|--------------------------|
D--------------------------|--------------------------|
A--------------------------|--------------------------|
E--0--0--0--0--0--1--0--0--|--5--5--6--6--7--7--8--8--|

 riff 1
G-----------------------------|--------------------------|
D-----------------------------|--------------------------|
A--5--6--7--8- ---7-----------|--------------------------|
E--------------0--0--0--0--0--|--0--0--0--0--0--0--1--1--|

G------------------------|--------------------------|
D------------------------|--------------------------|
A------------------------|--------------------------|
E--0--0---0--0--0--0--0--|--5--5--6--6--7--7--8--8--|

 bass fill 1 ---|
G------------------|
D------------------|
A--------5---------|
E------------------|

riff 2    let ring                      let ring
G---------------------------------|--------------------------|
D---------------------------------|--------------------------|
A-----------------7-----(7)------|--------------7-----(7)--|
E--------0---------------------0--|--0--0--------------------|

G-------------|------------------------|
D-------------|------------------------|
A-------------|------------------------|
E--1--1----0--|--1--0--1---1--1h3---1--|

  bass figure 2            let ring
G--------------------|---------------------------|
D--------------------|---------------------------|
A--------------------|----------------7----(7)--|
E--0--0--0--0--0--0--|--0---0--0-----------------|

                       end bass fig 2
G---------------------|------------------|
D---------------------|------------------|
A---------------------|------------------|
E--1---1--1--1--1--1--|--1--0--1--1--8--|

 1st, 2nd verses
G-----------------|-----------------|--------------------|
D-----------------|-----------------|--------------------|
A-----------------|--------------0--|--1--1--1--1--1--1--|
E--0--0--0--0--0--|--0--0--0--3-----|--------------------|

G-----------|-------------------------|-------------------|
D-----------|-------------------------|-------------------|
A--1--1--1--|--0---0---0---0----0--0--|--0--0---0---0--0--|
E-----------|-------------------------|-------------------|

G-----------------------|---------------------|
D-----------------------|---------------------|
A--1----1--1--1---1--1--|--1--1----1----------|
E-----------------------|--------------x---x--|

G----------------------|--------------------|
D----------------------|--------------------|
A----------------------|-----------------0--|
E--0----0----0--0---0--|--0---0---0---3-----|

G-----------------------|-------------------|---------------------|
D-----------------------|-------------------|---------------------|
A--1---1--1--1----1--1--|--1--1---1---1--1--|---------------------|
E-----------------------|-------------------|--3---3--3--3--3--3--|

G--------------------|-----------------------|
D--------------------|-----------------------|
A--------------------|--1--1--1--1--1--1--1--|
E--3---3---3---3--3--|-----------------------|

G--------------|-----------------|
D--------------|-----------------|
A--1--1--1--1--|--1---1---2---3--|
E--------------|-----------------|

  pm---------------|
G------------------------|------------------------|
D------------------------|------------------------|
A--5--6--7--7--7--8--7--|------------------------|
E------------------------|--0---0--0--3--5--1--1--|

G------------------------|--------------------------|
D------------------------|--------------------------|
A------------------------|--------------------------|
E--0---0--0--0--1--0--0--|--5--5--6--6--7--7--8--9--|

 bass fig 3
G--------------------------|--------------------------|
D--------------------------|--------------------------|
A--------------------------|--------------------------|
E--1--1--1--1--1--1--1--1--|--1--1--1--1--1--3--1--1--|

G--------------------------|--------------------------|
D--------------------------|--------------------------|
A--------------------------|--------------------------|
E--0--0--0--0--0--0--0--0--|--0--0--0--0--0--0--3--5--|

                                        end bass fig 3
G--------------------------|--------------------------|
D--------------------------|--------------------------|
A--------------------------|--------------------------|
E--6--6--6--6--6--6--6--6--|--6--6--6--6--6--6--6--6--|

  bass fig 4                     end bass fig 4
G--------------------|-------------------------|
D--------------------|-------------------------|
A--------------------|---------------3---------|
E--5--5--3--5--5--3--|--5--5--3---5-----5---0--|

  riff 3
G---------------------|-----------------------|
D---------------------|-----------------------|
A---------------------|-----------------------|
E--3--3--3--3---3--3--|--0--3--0--3--3--3--3--|

 interlude
G--------------------------|-----------------------------|
D--------------------------|-----------------------------|
A--------------------------|-----------------------3-----|
E--0--0--0--0--0--0--0--0--|--0--0--0--0--1--1--0-----1--|

G--------------------------|
D--------------------------|
A--------------------------|
E--0--0--0--0--0--0--0--0--|

                 end inter.
G--------------------------|
D-----------------------1--|
A--------------------------|
E--0--0--0--0---2---3------|

 riff 4
G--------------------------|--------------------------|
D--------------------------|--------------------------|
A--------------------------|--------------------------|
E--0--0--0--0--0--0--0--0--|--0--0--0--0--0--1--3--1--|

G--------------------------|------------------------|
D--------------------------|---------------------1--|
A--------------------------|--7--7------------------|
E--0--0--0--0--0--0--0--0--|--0--0--0--0--2--3------|

  riff 5
G-----|---------------------|---------------------|
D-----|---------------------|---------------------|
A--5--|------------7--------|------------7-----0--|
E-----|--0---0--0-----0--0--|--0---0--0-----3-----|

G-----------------|--------------------|-------------------|
D-----------------|--------------------|-------------------|
A--1--1--1--1--0--|--1--0--1--1--1--1--|-------------------|
E-----------------|--------------------|--3---3---3--3--0--|

G------------------|----------------------|-------------------|
D------------------|----------------------|-------------------|
A---------------0--|--1--1--1--1---1---0--|--1--0--1--1--1p0--|
E--3---3-----3-----|----------------------|-------------------|

             pm----------|
G---------------------------------|
D---------------------------------|
A--1--1--2--5--6--7--7--7--8--7--|
E---------------------------------|

G--------------------------|--------------------------|
D--------------------------|--------------------------|
A--------------------------|--------------------------|
E--0-----0--0--3--5--1--1--|--0-----0--0--3--5--1--1--|

G--------------------------|--------------------------|
D--------------------------|--------------------------|
A--------------------------|--------------------------|
E--0--0--0--0--0--1--0--0--|--5--5--6--6--7--7--8--8--|

       bass fill 2
G-----|---------------
D-----|---------------
A--5--|---------------
E-----|--3---3--0--3--

G---|----------------|
D---|----------------|
A---|----------------|
E3--|--3----3--2--1--|

  pre-chorus
G--------------------------|----------------------------|
D--------------------------|----------------------------|
A--------------------------|----------------------------|
E--1--1--1--1--1--1--1--1--|--1----1--1--1--1--1--3--1--|

G--------------------------|-----------------------|
D--------------------------|-----------------------|
A--------------------------|---------------------0-|
E--0--0--0--0--0--0--0--0--|--0--0--0---0--1--3----|

G-------------------------|------|
D-------------------------|------|
A-1--1--1--1--1--1--3--1--|------|
E-------------------------|------|

chorus
G----------------------|------------------------|
D----------------------|------------------------|
A----------------------|---------------3--------|
E--5---5--3--5---5--3--|--5---5--3--5-----5--0--|

G----------------|--------------------------|----------------|
D----------------|--------------------------|----------------|
A----------------|--------------------------|--3---0--3---0--|
E--3---0--3---0--|--0--3--3--0--0--3--0--0--|----------------|

G---------------|--------------------------|--------------------|
D---------------|--------------------------|--------------------|
A--3--3---5--3--|--2--2--2--2--2--2--2--2--|-1--1---1-----------|
E---------------|--------------------------|-----------0--3--1--|

  outro
G--------------------------|--------------------------|
D--------------------------|--------------------------|
A--------------------------|--------------------------|
E--0--0--0--0--0--1--0--0--|--0--0--0--0--3--0--1--1--|

G--------------------------|--------------------------|
D--------------------------|--------------------------|
A--------------------------|--------------------------|
E--0--0--0--0--0--1--0--0--|--5--5--6--6--7--7--8--8--|

bass fig 5
G-----------------------|--------------------------|
D-----------------------|--------------------------|
A--5--6--7--7-----------|--------------------------|
E--------------0--1--0--|--0--0--0--0--3--5--1--1--|

G--------------------------|--------------------------|
D--------------------------|--------------------------|
A--------------------------|--------------------------|
E--0--0--0--0--0--1--0--0--|--5--5--6--6--7--7--8--8--|