Methadones - Bottom Out Text Guitar Tab

Learn the song with the online tablature player
Song: Bottom Out
Artist: The Methadones
Album: Ill At Ease

Not doing the timing, its easy enough, just listen to the song

Intro/Verse:
e--------------|
B--------------|
G----------9---|
D--9---4-7-9-9-|
A--9---4-7-7-9-|
E--7---2-5---7-|

Chorus
e---------------------------------------|----------------------------------|
B---------------------------------------|----------------------------------|
G------------------9----------------9---|------------------9---------------|
D--9-------7-------9--------9-----7-9-9-|--9-------7-------9-------9-------|
A--9-------7-------7--------9-----7-7-9-|--9-------7-------7-------9-------|
E--7-------5----------------7-----5---7-|--7-------5---------------7-------|

k00pa138