Mew - Circuitry Of The Wolf Text Guitar Tab

Learn song with the online tabulature player
Here are the tabs for the chords played in the first half

The amount each chord is played isn't right but it's not hard to pick it out.

E||----------------------|----------------------|----------------------|
B||----------------------|----------------------|----------------------|
G||----------------------|----------------------|--9----9----9----9----|
D||--6----6----6----6----|--6----6----6----6----|--6----6----6----6----|
A||--6----6----6----6----|--6----6----6----6----|--6----6----6----6----|
E||--4----4----4----4----|--0----0----0----0----|--0----0----0----0----|

----------------------|------------------|----------------------|
----------------------|------------------|----------------------|
--8----8----8----8----|------------------|----------------------|
--6----6----6----6----|------------------|--2----2----2----4----|
--6----6----6----6----|------------------|--2----2----2----2----|
--0----0----0----0----|------------------|--0----0----0----0----|

----------------------|----------------------|---------------||
----------------------|----------------------|---------------||
----------------------|----------------------|---------------||
--4----6----6----6----|--6----6----6----6----|------6--------||
--2----6----6----6----|--7----7----7----7----|------6--------||
--0----4----4----4----|--5----5----5----5----|------4--------||

The ending 3 chords are E5 (e,b,e) G5 (g,d,g) and C5 (c,f,c) repeated untill the end of 
song.


Remember to play this with mainly downstrokes, play it loud ... it should sound ace once 
have perfected it, happy stumage.

TomBarclay