Mewithoutyou - Fiji Mermaid Text Guitar Tab

Learn song with the online tabulature player
this is what Mike plays
chords that aaron plays on the other chord tab
tuning standard

intro and first verse- with a slide
e|------------------------------|
b|------------------------------|does this sliding back and forth the whole time
g|-12\7~---7/8\7/8\7/8\7/8\7----| might hit 9 sometimes too
d|------------------------------|
a|------------------------------|
e|------------------------------|
chorus x4                   1st, 3rd time    2nd ending
e|------------------------|-----------------|-----------------------|
b|------11----------------|-----------------|-8-8--8-8--8--8---8--8-|
g|10h12----12--10-10h12p10|---------10------|-9-9--9-9--8--8---8--8-|
d|------------------------|10h12-12----12---|-8-8--8-8--10-10--10-10|
a|------------------------|---------------10|-----------------------|
e|------------------------|-----------------|-----------------------|
2nd verse with slide
e|--------------------------------|
b|--------------------------------|
g|-12\7~---7/8\7----7/9-9\8-8\7---|
d|--------------------------------|
a|--------------------------------|
e|--------------------------------|

e|--------------------------------|
b|--------------------------------|
g|-7/8\7---7/8\7---7/9-9\8-8/12~--|
d|--------------------------------|
a|--------------------------------|
e|--------------------------------|

e|--------------------------------|
b|--------------------------------|
g|-12\7---7/8\7---7/9-9/8-8/12----|
d|--------------------------------|
a|--------------------------------|
e|--------------------------------|

chorus again

2:11
e|----------------------------------------------------|
b|---11-------11----11-11/12------11-------11---------|
g|12----12-12----12------------12----12-12----12-12\7-|
d|----------------------------------------------------|
a|----------------------------------------------------|
e|----------------------------------------------------|
2:22
e|------------------------------------------------------------------|
b|12h13-15--12h13-15-12h13---12h13-15--12-11----11-------11---------|
g|-------------------------------------------12----12-12----12-12\7-|
d|------------------------------------------------------------------|
a|------------------------------------------------------------------|
e|------------------------------------------------------------------|
not sure on next part.
sounds like some more sliding on the g string
2:59
e|------------------------------------------|
b|------------------------------------------|
g|------------------------------------------|
d|------------------------------------------|x2
a|------------------------------------------|
e|-6--8-10--13-10-3-8-7-----6--8-10--13-10~-|