Michael Jackson - Billie Jean Text Bass Tab

Learn the song with the online tablature player
MICHALE JACKSON - BILLIE JEAN BASS TAB

INTRO

G|----------------|
D|-4--2-4-2-------|
A|--4-------4-2-4-|
E|----------------|

CHORUS

G|----------------|----------------|-4--2-4-2-------|-4--2-4-2-------|
D|-4--2-4-2-------|-4--2-4-2-------|--4-------4-2-4-|--4-------4-2-4-|
A|--4-------4-2-4-|--4-------4-2-4-|----------------|----------------|
E|----------------|----------------|----------------|----------------|

OR

G|----------------|----------------|----------------|----------------|
D|----------------|----------------|-9--7-9-7-------|-9--7-9-7-------|
A|-9--7-9-7-------|-9--7-9-7-------|--9-------9-7-9-|--9-------9-7-9-|
E|--9-------9-7-9-|--9-------9-7-9-|----------------|----------------|

PRE-CHORUS
G|---------------------|-----------------------|---------------------|
D|--4------------------|--0------0-0-0------2--|--4------------------|
A|------------------4--|-----------------------|------------------4--|
E|---------2-----------|-----------------------|---------2-----------|

G|-----------------------|----------------------|
D|--0--------0-0------2--|--4-------------------|
A|-----------------------|----------------2--4--|
E|-----------------------|---------2------------|

G|------------------------|--------------------------|
D|--0------0-0-0----0-----|--------------------------|
A|---------------------0--|--4--4--4--4--4--4--4--4--|
E|------------------------|--------------------------|

VERSE I

She was more like beauty queen from a movie scene
I said don't mind, but what do you mean I am the one

Who will dance on the floor in the round
She said I am the one who will dance on the floor in the round

VERSE 2

She told me her name was Billie Jean, as she caused a scene
Then every head turned with eyes that dreamed of being the one
Who will dance on the floor in the round

BRIDGE

People always told me be careful what you do
Don't go around breaking young girls' hearts
And mother always told me be careful who you love
Be careful what you do 'cause the lie becomes the truth

CHORUS

Billie Jean is not my lover
She's just a girl who claims that I am the one
But the kid is not my son
She says I am the one, but the kid is not my son

VERSE III

For forty days and forty nights
The law was on her side
But who can stand when she's in demand
Her schemes and plans
'Cause we danced on the floor in the round
So take my strong advice, just remember to always think twice
(Do think twice)

VERSE IV

She told my baby we'd danced 'till three
Then she looked at me
Then showed a photo of a baby cryin'
His eyes were like mine
Come on dance on the floor in the round, baby

BRIDGE II

People always told me be careful what you do
Don't go around breaking young girls' hearts

She came and stood right by me
The smell of sweet perfume

This happened much too soon
She called me to her room

CHORUS II

Billie Jean is not my lover
She's just a girl who claims that I am the one
But the kid is not my son
Billie Jean is not my lover
She's just a girl who claims that I am the one
But the kid is not my son
She says I am the one, but the kid is not my son
She says I am the one, but the kid is not my son
Billie Jean is not my lover
She's just a girl who claims that I am the one
But the kid is not my son
She says I am the one, but the kid is not my son
She says I am the one, she says he is my son
She says I am the one
Billie Jean is not my lover
Billie Jean is not my lover
Billie Jean is not my lover
Billie Jean is not my lover
Billie Jean is not my lover
Billie Jean is not my lover
____________________________________________________________________________________

FOR ANYMORE TABS, OR IF YOU HAVE ANY REQUESTS, COMMENTS OR SUGGESTIONS EMAIL ME AT:

ENJOY!!!