Milburn - Brewster Text Guitar Tab

Learn song with the online tabulature player
Brewster - Milburn'

Intro: 
                                                               C          D
e|-0-1-2--7-8-7--5-7-5-0---------------------------------------------------|
B|-0------7------5-------0----0-0-1-0------------0-1-0-1-0-----------------|
G|--------7------5--------------------2-0----0-2-----------0---------------|

Em D Em    G F#m    Em D Em F#m G F#m
x2

Em                   D          Bm G Bm C
Where you going now, our Davey? 
Em                  D           Bm G Bm C
Don't be late now, our Davey. 

Bm                 C                               Em D Em D
And all his friends say "Why do you act that way?" 
Bm                    C                        Em D
But all the boys say 'You coming out to play?' 

Em                                        
And all the pretty girls they're singing,
G                   Bm
la de da, de da de, da de da 
C                   D
Davey boy is such a pretty little boy, 
             G                        Bm 
But don't you think about your mother, all alone? 
C                      
She's waiting for your call,
      D                          Em     D
she's waiting, she's tired, she's bored. 
             C     D  
So give her a call, a call! 

Em D Em    G F#m    Em D Em F#m G F#m


(same)
He gets it all from his fathers blood, 
who used to be a casual, as casual as they come. 
Now he's gone to live in Liverpool. 

Yeah davey does whatever davey see's. 
He'll give you a good kicking and he'll bring you down to your knees, 
if you don't believe in what he does. 

And all his friends say "Why do you act that way?" 
But all the boys say "You coming out to play?" 
And all the pretty girls they're singing, la de da, de da de, da de da 
Davey boy is such a pretty little boy, 
but don't you think about your mother, all alone? 
She's waiting for your call, 
she's waiting, she's tired, singing, la de da, de da de, da de da 
Davey boy has found a bround new toy, 
He's often playing in the rubbish bins, smashing all the windows in. 
Fighting in car parks and he's fucking up the flat he calls home, 
why don't you go home? 

e|---------------------------------------------------------------------|
B|-0-0-0-0---------0---0-0-0--3-2--------------------------------------|
G|---------2-0---------------------------------------------------------|
D|-------------2-------------------------------------------------------|
A|---------------------------------------------------------------------|
E|---------------------------------------------------------------------|

e|---------------------------------------------------------0-0-0-0-0------|
B|-0-0-0-0---------0---0-0-0---------------------------0-3-----------3-0-3|
G|---------2-0-----------------2-0---------0---0-2-0-2--------------------|
D|-------------2-------------------2-2-0-2---2----------------------------|
A|------------------------------------------------------------------------|
E|------------------------------------------------------------------------|

e|-0-0----------5-3----5-3---5-3----------------------------------------|
B|-----3-0--------------------------------------------------------------|
G|----------------------------------------------------------------------|
D|----------------------------------------------------------------------|
A|----------------------------------------------------------------------|
E|----------------------------------------------------------------------|



Wooooo! I Love Milburn A Lot!!
enjoy!
i hope this is correct :D

Ak xxx