Misc Christmas - Joy To The World Text Guitar Tab

Learn song with the online tabulature player
e|---------------------------------------------
B|---3--2--0--------------------0--0--2--2--3--
G|------------2--0-----------2-----------------
D|------------------4--2--0--------------------
A|---------------------------------------------
E|---------------------------------------------

e|-----------------------------------------------
B|--3--3p2--0--------------3--3p2--0-------------
G|-------------2--2--0----------------2--2--0----
D|----------------------4----------------------4-
A|-----------------------------------------------
E|-----------------------------------------------

e|-----------------------------------------------------
B|-----------------------------------------------------
G|-----------------0--2--0------------------0----------
D|--4--4--4--4--4-----------4--2--2--2--2h4------------
A|-----------------------------------------------------
E|-----------------------------------------------------

e|----------------------------------------
B|-----------3--0-------------------------
G|-----------------2--0-------------------
D|--4p0--2--------------4---2--0----------
A|----------------------------------------
E|----------------------------------------