Misc Christmas - We Three Kings Text Guitar Tab

Learn the song with the online tablature player
e|---------------|-----------*-|--------------|-----------*-|
B|---0-----------|-----------*-|--0-----------|-----------*-|
G|-------2-0-----|---0-------*-|------2-0-----|---0-------*-|
D|-------------2-|-4---4-2---*-|------------2-|-4---4-2---*-|
A|---------------|-----------*-|--------------|-----------*-|
E|---------------|-----------*-|--------------|-----------*-|

e|---------------|-------------|--------------|-----*-------|
B|---------------|-0---0-3-1-0-|----0---------|-----*-------|
G|---0---0-2---2-|-------------|--2---2-0-----|-----*-----2-|
D|---------------|-------------|------------4-|-2---*-4-----|
A|---------------|-------------|--------------|-----*-------|
E|---------------|-------------|--------------|-----*-------|

e|---------------|-----------*-|--------------|-----------*-|
B|---------------|-----------*-|--------------|-----------*-|
G|---0---0-0-----|-0-----0---*-|--0---0-0-----|-0-----0---*-|
D|-------------0-|-----2-----*-|------------0-|-----2-----*-|
A|---------------|-----------*-|--------------|-----------*-|
E|---------------|-----------*-|--------------|-----------*-|

e|---------------|-------------|--------------|-----------*-|
B|-------------0-|-1---0-----0-|--------------|-----------*-|
G|---0---0-2-----|-------2-----|--0---0-0-----|-0-----0---*-|
D|---------------|-------------|------------0-|-----2-----*-|
A|---------------|-------------|--------------|-----------*-|
E|---------------|-------------|--------------|-----------*-|