Misc Christmas - White Christmas Text Guitar Tab

Learn the song with the online tablature player
Dreaming of a white christmas? Only if you can drive well in the snow. Sounds beautiful
if played with an acoustic guitar.

e------------------------------------------------------------5---3-------3---1-0------
b---5---6-5-4-5-6---7-8---10-12-13-15-13-12-10-8---1-3-5-5-5-------1-1-1--------------
g-------------------------------------------------------------------------------------
d-------------------------------------------------------------------------------------
a-------------------------------------------------------------------------------------
E-------------------------------------------------------------------------------------

e---------------5-----|---------------------------------------------------------------
b---6-5-3-1-3-----5---|---5---6-5-4-5-6---7-8---10-12-13-15-13-12-10-8----------------
g---------------------|---------------------------------------------------------------
d---------------------|---------------------------------------------------------------
a---------------------|---------------------------------------------------------------
E---------------------|---------------------------------------------------------------

e-----------5-3-3-8-----------5-3-----------------------------------------------------
b---1-3-5-5-----------1-3-5-5-----0-0-1-----------------------------------------------
g-------------------------------------------------------------------------------------
d-------------------------------------------------------------------------------------
a-------------------------------------------------------------------------------------
E-------------------------------------------------------------------------------------

I'm dreaming of a white Christmas
Just like the ones I used to know
Where the tree-tops glisten
And children listen
to hear sleigh-bells in the snow

I'm dreaming of a white Christmas
With every Christmas card I write
May your days be merry and bright
And may all your Christmases be white