Misc. Computer Games - Baldurs Gate Theme Text Guitar Tab

Learn song with the online tabulature player
Baldurs Gate: Main Theme
Standard Tuning
Tabbed by drawnacrol

Cover Video:
http://www.youtube.com/watch?v=cCM6Z_dq4ac&lc

|--------------------------------------------------------------------------------|
|--------------------------------------------------------------------------------|
|--------------------------------------------------------------------------------|
|--------------------8------7-------------------------8------7-------------------|
|-5--7--8-----7--5-----------------5--7--8-----7--5------------------------------|
|--------------------------------------------------------------------------------|

|--------------------------------------------------------------------------------|
|--------------------------------------------------------------------------------|
|----------------------------7--6------------------------------------------------|
|-5--7--8-----7--5--7--------------8--7--5--------5------------------------------|
|----------------------------------------------8-----7---------------------------|
|--------------------------------------------------------------------------------|

|--------------------------------------------------------------------------------|
|--------------------------------------------------------------------------------|
|--------------------------------------------------------------------------------|
|----------------8----7--5--7------8--8--7--5------------5---7-------------------|
|--5--5--7--8----------------------------------8------8--------------------------|
|--------------------------------------------------------------------------------|

|--------------------------------------------------------------------------------|
|----------------------11----10----------------------------11-----10-------------|
|--7--9--10-----9--7-------------------7--9--10-----9--7-------------------------|
|--------------------------------------------------------------------------------|
|--------------------------------------------------------------------------------|
|--------------------------------------------------------------------------------|

|---------------------------------10--9------------------------------------------|
|--8--10--11-----10--8--10---------------11--10--8-------------------------------|
|-------------------------------------------------------9--10--------------------|
|--------------------------------------------------------------------------------|
|--------------------------------------------------------------------------------|
|--------------------------------------------------------------------------------|

|--------------------------------------------------------------------------------|
|----------------11------10--8--10----------------------13---11--13---15---15-15-|
|--7--7--9--10----------------------------7--7--9--10----------------------------|
|--------------------------------------------------------------------------------|
|--------------------------------------------------------------------------------|
|--------------------------------------------------------------------------------|