Misc. Computer Games - Legend Of Zelda - Zeldas Lullaby Text Guitar Tab

Learn the song with the online tablature player
This is what I got for this song. It a a beautiful lullaby.

e|------------------------5--3-------------------------------------5--3--10-|
B|----3----------3------3------3---------------3----------3------3----------|
G|--4---2--0-2-4---2--4----------5--4--2-----4---2--0-2-4---2--4------------|
D|--------------------------------------------------------------------------|
A|--------------------------------------------------------------------------|
E|--------------------------------------------------------------------------|

e|--10--8-7-8-7--------8--7-5-7-5------10--8-7-8-7---8-15-------------------|
B|--------------8-----------------5----------------8------------------------|
G|--------------------------------------------------------------------------|
D|--------------------------------------------------------------------------|
A|--------------------------------------------------------------------------|
E|--------------------------------------------------------------------------|

e|------------------------5--3-------------------------------------5--3--10-|
B|----3----------3------3------3---------------3----------3------3----------|
G|--4---2--0-2-4---2--4----------5--4--2-----4---2--0-2-4---2--4------------|
D|--------------------------------------------------------------------------|
A|--------------------------------------------------------------------------|
E|--------------------------------------------------------------------------|

e|--10--8-7-8-7--------8--7-5-7-5------10--8-7-8-7---8-15-------------------|
B|--------------8-----------------5----------------8------------------------|
G|--------------------------------------------------------------------------|
D|--------------------------------------------------------------------------|
A|--------------------------------------------------------------------------|
E|--------------------------------------------------------------------------|

e|------------------------5--3--8--5-7-8-10-----10-10-10--10----------------|
B|----3----------3------3-----------------------13-13-13--12----------------|
G|--4---2--0-2-4---2--4-----------------------------------------------------|
D|--------------------------------------------------------------------------|
A|--------------------------------------------------------------------------|
E|--------------------------------------------------------------------------|